 0 
SECTION
 2 
HEADER
 9 
$ACADVER
 1 
AC1004
 9 
$EXTMIN
 10 
0.0
 20 
0.0
 9 
$EXTMAX
 10 
6.4
 20 
1.6
 9 
$LIMMIN
 10 
0.0
 20 
0.0
 9 
$LIMMAX
 10 
6.4
 20 
1.6
 9 
$INSBASE
 10 
0.0
 20 
0.0
 9 
$VIEWCTR
 10 
3.2
 20 
0.8
 9 
$VIEWSIZE
 40 
1.6
 9 
$ORTHOMODE
 70 
 0 
 9 
$REGENMODE
 70 
 1 
 9 
$FILLMODE
 70 
 1 
 9 
$QTEXTMODE
 70 
 0 
 9 
$DRAGMODE
 70 
 2 
 9 
$LTSCALE
 40 
1.0
 9 
$OSMODE
 70 
 0 
 9 
$ATTMODE
 70 
 1 
 9 
$TEXTSIZE
 40 
0.2
 9 
$TRACEWID
 40 
0.05
 9 
$TEXTSTYLE
 7 
STANDARD
 9 
$CLAYER
 8 
0
 9 
$CELTYPE
 6 
BYLAYER
 9 
$CECOLOR
 62 
 256 
 9 
$DIMSCALE
 40 
1.0
 9 
$DIMLFAC
 40 
1.0
 9 
$LUNITS
 70 
 2 
 9 
$LUPREC
 70 
 4 
 9 
$AXISMODE
 70 
 0 
 9 
$AXISUNIT
 10 
0.0
 20 
0.0
 9 
$SKETCHINC
 40 
0.1
 9 
$MENU
 1 
acad
 9 
$ELEVATION
 40 
0.0
 9 
$THICKNESS
 40 
0.0
 9 
$VIEWDIR
 10 
0.0
 20 
0.0
 30 
1.0
 9 
$LIMCHECK
 70 
 0 
 9 
$BLIPMODE
 70 
 1 
 9 
$FASTZOOM
 70 
 1 
 9 
$SKPOLY
 70 
 0 
 9 
$ANGBASE
 50 
0.0
 9 
$ANGDIR
 70 
 0 
 9 
$PDMODE
 70 
 0 
 9 
$PDSIZE
 40 
0.0
 9 
$PLINEWID
 40 
0.0
 9 
$COORDS
 70 
 0 
 9 
$ATTDIA
 70 
 0 
 9 
$ATTREQ
 70 
 1 
 0 
ENDSEC
 0 
SECTION
 2 
TABLES
 0 
TABLE
 2 
LTYPE
 70 
 10 
 0 
LTYPE
 2 
CONTINUOUS
 70 
 64 
 3 
Solid line
 72 
 65 
 73 
 0 
 40 
0.0
 0 
ENDTAB
 0 
TABLE
 2 
LAYER
 70 
 153 
 0 
LAYER
 2 
0
 70 
 64 
 62 
 7 
 6 
CONTINUOUS
 0 
ENDTAB
 0 
ENDSEC
 0 
SECTION
 2 
BLOCKS
 0 
ENDSEC
 0 
SECTION
 2 
ENTITIES
 0 
LINE
 8 
0
 62 
 7 
 10 
0.0
 20 
1.6
 11 
6.4
 21 
1.6
 0 
LINE
 8 
0
 62 
 7 
 10 
6.4
 20 
1.6
 11 
6.4
 21 
0.0
 0 
LINE
 8 
0
 62 
 7 
 10 
6.4
 20 
0.0
 11 
0.0
 21 
0.0
 0 
LINE
 8 
0
 62 
 7 
 10 
0.0
 20 
0.0
 11 
0.0
 21 
1.6
 0 
LINE
 8 
0
 62 
 7 
 10 
0.824
 20 
0.87
 11 
0.793
 21 
0.87
 0 
LINE
 8 
0
 62 
 7 
 10 
0.793
 20 
0.87
 11 
0.793
 21 
0.48
 0 
LINE
 8 
0
 62 
 7 
 10 
0.793
 20 
0.48
 11 
0.881
 21 
0.48
 0 
LINE
 8 
0
 62 
 7 
 10 
0.881
 20 
0.48
 11 
0.881
 21 
0.87
 0 
LINE
 8 
0
 62 
 7 
 10 
0.881
 20 
0.87
 11 
0.85
 21 
0.87
 0 
LINE
 8 
0
 62 
 7 
 10 
0.85
 20 
0.87
 11 
0.85
 21 
0.844
 0 
LINE
 8 
0
 62 
 7 
 10 
0.85
 20 
0.844
 11 
0.824
 21 
0.844
 0 
LINE
 8 
0
 62 
 7 
 10 
0.824
 20 
0.844
 11 
0.824
 21 
0.87
 0 
LINE
 8 
0
 62 
 7 
 10 
0.8
 20 
0.925
 11 
0.8
 21 
0.893
 0 
LINE
 8 
0
 62 
 7 
 10 
0.8
 20 
0.893
 11 
0.806
 21 
0.887
 0 
LINE
 8 
0
 62 
 7 
 10 
0.806
 20 
0.887
 11 
0.819
 21 
0.887
 0 
LINE
 8 
0
 62 
 7 
 10 
0.819
 20 
0.887
 11 
0.825
 21 
0.893
 0 
LINE
 8 
0
 62 
 7 
 10 
0.825
 20 
0.893
 11 
0.825
 21 
0.925
 0 
LINE
 8 
0
 62 
 7 
 10 
0.844
 20 
0.919
 11 
0.851
 21 
0.925
 0 
LINE
 8 
0
 62 
 7 
 10 
0.851
 20 
0.925
 11 
0.851
 21 
0.887
 0 
LINE
 8 
0
 62 
 7 
 10 
0.844
 20 
0.887
 11 
0.857
 21 
0.887
 0 
LINE
 8 
0
 62 
 7 
 10 
0.824
 20 
1.37
 11 
0.793
 21 
1.37
 0 
LINE
 8 
0
 62 
 7 
 10 
0.793
 20 
1.37
 11 
0.793
 21 
0.98
 0 
LINE
 8 
0
 62 
 7 
 10 
0.793
 20 
0.98
 11 
0.881
 21 
0.98
 0 
LINE
 8 
0
 62 
 7 
 10 
0.881
 20 
0.98
 11 
0.881
 21 
1.37
 0 
LINE
 8 
0
 62 
 7 
 10 
0.881
 20 
1.37
 11 
0.85
 21 
1.37
 0 
LINE
 8 
0
 62 
 7 
 10 
0.85
 20 
1.37
 11 
0.85
 21 
1.344
 0 
LINE
 8 
0
 62 
 7 
 10 
0.85
 20 
1.344
 11 
0.824
 21 
1.344
 0 
LINE
 8 
0
 62 
 7 
 10 
0.824
 20 
1.344
 11 
0.824
 21 
1.37
 0 
LINE
 8 
0
 62 
 7 
 10 
0.8
 20 
1.425
 11 
0.8
 21 
1.393
 0 
LINE
 8 
0
 62 
 7 
 10 
0.8
 20 
1.393
 11 
0.806
 21 
1.387
 0 
LINE
 8 
0
 62 
 7 
 10 
0.806
 20 
1.387
 11 
0.819
 21 
1.387
 0 
LINE
 8 
0
 62 
 7 
 10 
0.819
 20 
1.387
 11 
0.825
 21 
1.393
 0 
LINE
 8 
0
 62 
 7 
 10 
0.825
 20 
1.393
 11 
0.825
 21 
1.425
 0 
LINE
 8 
0
 62 
 7 
 10 
0.838
 20 
1.419
 11 
0.844
 21 
1.425
 0 
LINE
 8 
0
 62 
 7 
 10 
0.844
 20 
1.425
 11 
0.857
 21 
1.425
 0 
LINE
 8 
0
 62 
 7 
 10 
0.857
 20 
1.425
 11 
0.863
 21 
1.419
 0 
LINE
 8 
0
 62 
 7 
 10 
0.863
 20 
1.419
 11 
0.863
 21 
1.412
 0 
LINE
 8 
0
 62 
 7 
 10 
0.863
 20 
1.412
 11 
0.857
 21 
1.406
 0 
LINE
 8 
0
 62 
 7 
 10 
0.857
 20 
1.406
 11 
0.844
 21 
1.406
 0 
LINE
 8 
0
 62 
 7 
 10 
0.844
 20 
1.406
 11 
0.838
 21 
1.4
 0 
LINE
 8 
0
 62 
 7 
 10 
0.838
 20 
1.4
 11 
0.838
 21 
1.387
 0 
LINE
 8 
0
 62 
 7 
 10 
0.838
 20 
1.387
 11 
0.863
 21 
1.387
 0 
CIRCLE
 8 
0
 62 
 7 
 10 
1.125
 20 
0.25
 40 
0.018
 0 
CIRCLE
 8 
0
 62 
 7 
 10 
1.125
 20 
0.35
 40 
0.018
 0 
CIRCLE
 8 
0
 62 
 7 
 10 
1.225
 20 
0.25
 40 
0.018
 0 
CIRCLE
 8 
0
 62 
 7 
 10 
1.225
 20 
0.35
 40 
0.018
 0 
CIRCLE
 8 
0
 62 
 7 
 10 
1.325
 20 
0.25
 40 
0.018
 0 
CIRCLE
 8 
0
 62 
 7 
 10 
1.325
 20 
0.35
 40 
0.018
 0 
CIRCLE
 8 
0
 62 
 7 
 10 
1.425
 20 
0.25
 40 
0.018
 0 
CIRCLE
 8 
0
 62 
 7 
 10 
1.425
 20 
0.35
 40 
0.018
 0 
CIRCLE
 8 
0
 62 
 7 
 10 
1.525
 20 
0.25
 40 
0.018
 0 
CIRCLE
 8 
0
 62 
 7 
 10 
1.525
 20 
0.35
 40 
0.018
 0 
CIRCLE
 8 
0
 62 
 7 
 10 
1.625
 20 
0.25
 40 
0.018
 0 
CIRCLE
 8 
0
 62 
 7 
 10 
1.625
 20 
0.35
 40 
0.018
 0 
CIRCLE
 8 
0
 62 
 7 
 10 
1.725
 20 
0.25
 40 
0.018
 0 
CIRCLE
 8 
0
 62 
 7 
 10 
1.725
 20 
0.35
 40 
0.018
 0 
CIRCLE
 8 
0
 62 
 7 
 10 
1.825
 20 
0.25
 40 
0.018
 0 
CIRCLE
 8 
0
 62 
 7 
 10 
1.825
 20 
0.35
 40 
0.018
 0 
CIRCLE
 8 
0
 62 
 7 
 10 
1.925
 20 
0.25
 40 
0.018
 0 
CIRCLE
 8 
0
 62 
 7 
 10 
1.925
 20 
0.35
 40 
0.018
 0 
CIRCLE
 8 
0
 62 
 7 
 10 
2.025
 20 
0.25
 40 
0.018
 0 
CIRCLE
 8 
0
 62 
 7 
 10 
2.025
 20 
0.35
 40 
0.018
 0 
LINE
 8 
0
 62 
 7 
 10 
1.075
 20 
0.2
 11 
1.075
 21 
0.4
 0 
LINE
 8 
0
 62 
 7 
 10 
2.075
 20 
0.4
 11 
1.075
 21 
0.4
 0 
LINE
 8 
0
 62 
 7 
 10 
2.075
 20 
0.4
 11 
2.075
 21 
0.2
 0 
LINE
 8 
0
 62 
 7 
 10 
1.075
 20 
0.2
 11 
2.075
 21 
0.2
 0 
LINE
 8 
0
 62 
 7 
 10 
0.958
 20 
0.325
 11 
0.983
 21 
0.325
 0 
LINE
 8 
0
 62 
 7 
 10 
0.983
 20 
0.325
 11 
0.983
 21 
0.283
 0 
LINE
 8 
0
 62 
 7 
 10 
0.983
 20 
0.283
 11 
0.975
 21 
0.275
 0 
LINE
 8 
0
 62 
 7 
 10 
0.975
 20 
0.275
 11 
0.958
 21 
0.275
 0 
LINE
 8 
0
 62 
 7 
 10 
0.958
 20 
0.275
 11 
0.95
 21 
0.283
 0 
LINE
 8 
0
 62 
 7 
 10 
1.0
 20 
0.317
 11 
1.008
 21 
0.325
 0 
LINE
 8 
0
 62 
 7 
 10 
1.008
 20 
0.325
 11 
1.025
 21 
0.325
 0 
LINE
 8 
0
 62 
 7 
 10 
1.025
 20 
0.325
 11 
1.033
 21 
0.317
 0 
LINE
 8 
0
 62 
 7 
 10 
1.033
 20 
0.317
 11 
1.033
 21 
0.308
 0 
LINE
 8 
0
 62 
 7 
 10 
1.033
 20 
0.308
 11 
1.025
 21 
0.3
 0 
LINE
 8 
0
 62 
 7 
 10 
1.025
 20 
0.3
 11 
1.008
 21 
0.3
 0 
LINE
 8 
0
 62 
 7 
 10 
1.008
 20 
0.3
 11 
1.0
 21 
0.292
 0 
LINE
 8 
0
 62 
 7 
 10 
1.0
 20 
0.292
 11 
1.0
 21 
0.275
 0 
LINE
 8 
0
 62 
 7 
 10 
1.0
 20 
0.275
 11 
1.033
 21 
0.275
 0 
CIRCLE
 8 
0
 62 
 7 
 10 
0.175
 20 
1.05
 40 
0.012
 0 
CIRCLE
 8 
0
 62 
 7 
 10 
0.254
 20 
1.05
 40 
0.012
 0 
CIRCLE
 8 
0
 62 
 7 
 10 
0.175
 20 
0.971
 40 
0.012
 0 
CIRCLE
 8 
0
 62 
 7 
 10 
0.254
 20 
0.971
 40 
0.012
 0 
CIRCLE
 8 
0
 62 
 7 
 10 
0.175
 20 
0.892
 40 
0.012
 0 
CIRCLE
 8 
0
 62 
 7 
 10 
0.254
 20 
0.892
 40 
0.012
 0 
CIRCLE
 8 
0
 62 
 7 
 10 
0.175
 20 
0.813
 40 
0.012
 0 
CIRCLE
 8 
0
 62 
 7 
 10 
0.254
 20 
0.813
 40 
0.012
 0 
CIRCLE
 8 
0
 62 
 7 
 10 
0.175
 20 
0.735
 40 
0.012
 0 
CIRCLE
 8 
0
 62 
 7 
 10 
0.254
 20 
0.735
 40 
0.012
 0 
CIRCLE
 8 
0
 62 
 7 
 10 
0.175
 20 
0.656
 40 
0.012
 0 
CIRCLE
 8 
0
 62 
 7 
 10 
0.254
 20 
0.656
 40 
0.012
 0 
CIRCLE
 8 
0
 62 
 7 
 10 
0.175
 20 
0.577
 40 
0.012
 0 
CIRCLE
 8 
0
 62 
 7 
 10 
0.254
 20 
0.577
 40 
0.012
 0 
LINE
 8 
0
 62 
 7 
 10 
0.1
 20 
1.125
 11 
0.325
 21 
1.125
 0 
LINE
 8 
0
 62 
 7 
 10 
0.325
 20 
0.5
 11 
0.325
 21 
1.125
 0 
LINE
 8 
0
 62 
 7 
 10 
0.325
 20 
0.5
 11 
0.1
 21 
0.5
 0 
LINE
 8 
0
 62 
 7 
 10 
0.1
 20 
1.125
 11 
0.1
 21 
0.5
 0 
LINE
 8 
0
 62 
 7 
 10 
0.383
 20 
0.95
 11 
0.408
 21 
0.95
 0 
LINE
 8 
0
 62 
 7 
 10 
0.408
 20 
0.95
 11 
0.408
 21 
0.908
 0 
LINE
 8 
0
 62 
 7 
 10 
0.408
 20 
0.908
 11 
0.4
 21 
0.9
 0 
LINE
 8 
0
 62 
 7 
 10 
0.4
 20 
0.9
 11 
0.383
 21 
0.9
 0 
LINE
 8 
0
 62 
 7 
 10 
0.383
 20 
0.9
 11 
0.375
 21 
0.908
 0 
LINE
 8 
0
 62 
 7 
 10 
0.433
 20 
0.942
 11 
0.442
 21 
0.95
 0 
LINE
 8 
0
 62 
 7 
 10 
0.442
 20 
0.95
 11 
0.442
 21 
0.9
 0 
LINE
 8 
0
 62 
 7 
 10 
0.433
 20 
0.9
 11 
0.45
 21 
0.9
 0 
CIRCLE
 8 
0
 62 
 7 
 10 
0.2
 20 
0.2
 40 
0.062
 0 
CIRCLE
 8 
0
 62 
 7 
 10 
0.2
 20 
1.4
 40 
0.062
 0 
CIRCLE
 8 
0
 62 
 7 
 10 
6.15
 20 
1.05
 40 
0.012
 0 
CIRCLE
 8 
0
 62 
 7 
 10 
6.229
 20 
1.05
 40 
0.012
 0 
CIRCLE
 8 
0
 62 
 7 
 10 
6.15
 20 
0.971
 40 
0.012
 0 
CIRCLE
 8 
0
 62 
 7 
 10 
6.229
 20 
0.971
 40 
0.012
 0 
CIRCLE
 8 
0
 62 
 7 
 10 
6.15
 20 
0.892
 40 
0.012
 0 
CIRCLE
 8 
0
 62 
 7 
 10 
6.229
 20 
0.892
 40 
0.012
 0 
CIRCLE
 8 
0
 62 
 7 
 10 
6.15
 20 
0.813
 40 
0.012
 0 
CIRCLE
 8 
0
 62 
 7 
 10 
6.229
 20 
0.813
 40 
0.012
 0 
CIRCLE
 8 
0
 62 
 7 
 10 
6.15
 20 
0.735
 40 
0.012
 0 
CIRCLE
 8 
0
 62 
 7 
 10 
6.229
 20 
0.735
 40 
0.012
 0 
CIRCLE
 8 
0
 62 
 7 
 10 
6.15
 20 
0.656
 40 
0.012
 0 
CIRCLE
 8 
0
 62 
 7 
 10 
6.229
 20 
0.656
 40 
0.012
 0 
CIRCLE
 8 
0
 62 
 7 
 10 
6.15
 20 
0.577
 40 
0.012
 0 
CIRCLE
 8 
0
 62 
 7 
 10 
6.229
 20 
0.577
 40 
0.012
 0 
LINE
 8 
0
 62 
 7 
 10 
6.075
 20 
1.125
 11 
6.3
 21 
1.125
 0 
LINE
 8 
0
 62 
 7 
 10 
6.3
 20 
0.5
 11 
6.3
 21 
1.125
 0 
LINE
 8 
0
 62 
 7 
 10 
6.3
 20 
0.5
 11 
6.075
 21 
0.5
 0 
LINE
 8 
0
 62 
 7 
 10 
6.075
 20 
1.125
 11 
6.075
 21 
0.5
 0 
LINE
 8 
0
 62 
 7 
 10 
5.958
 20 
0.875
 11 
5.983
 21 
0.875
 0 
LINE
 8 
0
 62 
 7 
 10 
5.983
 20 
0.875
 11 
5.983
 21 
0.833
 0 
LINE
 8 
0
 62 
 7 
 10 
5.983
 20 
0.833
 11 
5.975
 21 
0.825
 0 
LINE
 8 
0
 62 
 7 
 10 
5.975
 20 
0.825
 11 
5.958
 21 
0.825
 0 
LINE
 8 
0
 62 
 7 
 10 
5.958
 20 
0.825
 11 
5.95
 21 
0.833
 0 
LINE
 8 
0
 62 
 7 
 10 
6.0
 20 
0.867
 11 
6.008
 21 
0.875
 0 
LINE
 8 
0
 62 
 7 
 10 
6.008
 20 
0.875
 11 
6.025
 21 
0.875
 0 
LINE
 8 
0
 62 
 7 
 10 
6.025
 20 
0.875
 11 
6.033
 21 
0.867
 0 
LINE
 8 
0
 62 
 7 
 10 
6.033
 20 
0.867
 11 
6.033
 21 
0.858
 0 
LINE
 8 
0
 62 
 7 
 10 
6.033
 20 
0.858
 11 
6.025
 21 
0.85
 0 
LINE
 8 
0
 62 
 7 
 10 
6.025
 20 
0.85
 11 
6.017
 21 
0.85
 0 
LINE
 8 
0
 62 
 7 
 10 
6.025
 20 
0.85
 11 
6.033
 21 
0.842
 0 
LINE
 8 
0
 62 
 7 
 10 
6.033
 20 
0.842
 11 
6.033
 21 
0.833
 0 
LINE
 8 
0
 62 
 7 
 10 
6.033
 20 
0.833
 11 
6.025
 21 
0.825
 0 
LINE
 8 
0
 62 
 7 
 10 
6.025
 20 
0.825
 11 
6.008
 21 
0.825
 0 
LINE
 8 
0
 62 
 7 
 10 
6.008
 20 
0.825
 11 
6.0
 21 
0.833
 0 
CIRCLE
 8 
0
 62 
 7 
 10 
6.2
 20 
1.4
 40 
0.062
 0 
CIRCLE
 8 
0
 62 
 7 
 10 
6.2
 20 
0.2
 40 
0.062
 0 
LINE
 8 
0
 62 
 7 
 10 
2.374
 20 
0.963
 11 
2.275
 21 
0.963
 0 
CIRCLE
 8 
0
 62 
 7 
 10 
2.264
 20 
0.973
 40 
0.005
 0 
LINE
 8 
0
 62 
 7 
 10 
2.275
 20 
0.962
 11 
2.275
 21 
0.877
 0 
LINE
 8 
0
 62 
 7 
 10 
2.275
 20 
0.877
 11 
2.374
 21 
0.877
 0 
LINE
 8 
0
 62 
 7 
 10 
2.374
 20 
0.963
 11 
2.374
 21 
0.877
 0 
LINE
 8 
0
 62 
 7 
 10 
2.275
 20 
1.075
 11 
2.275
 21 
1.043
 0 
LINE
 8 
0
 62 
 7 
 10 
2.275
 20 
1.043
 11 
2.281
 21 
1.037
 0 
LINE
 8 
0
 62 
 7 
 10 
2.281
 20 
1.037
 11 
2.294
 21 
1.037
 0 
LINE
 8 
0
 62 
 7 
 10 
2.294
 20 
1.037
 11 
2.3
 21 
1.043
 0 
LINE
 8 
0
 62 
 7 
 10 
2.3
 20 
1.043
 11 
2.3
 21 
1.075
 0 
LINE
 8 
0
 62 
 7 
 10 
2.338
 20 
1.062
 11 
2.332
 21 
1.056
 0 
LINE
 8 
0
 62 
 7 
 10 
2.332
 20 
1.056
 11 
2.319
 21 
1.056
 0 
LINE
 8 
0
 62 
 7 
 10 
2.319
 20 
1.056
 11 
2.313
 21 
1.062
 0 
LINE
 8 
0
 62 
 7 
 10 
2.313
 20 
1.062
 11 
2.313
 21 
1.069
 0 
LINE
 8 
0
 62 
 7 
 10 
2.313
 20 
1.069
 11 
2.319
 21 
1.075
 0 
LINE
 8 
0
 62 
 7 
 10 
2.319
 20 
1.075
 11 
2.332
 21 
1.075
 0 
LINE
 8 
0
 62 
 7 
 10 
2.332
 20 
1.075
 11 
2.338
 21 
1.069
 0 
LINE
 8 
0
 62 
 7 
 10 
2.338
 20 
1.069
 11 
2.338
 21 
1.05
 0 
LINE
 8 
0
 62 
 7 
 10 
2.338
 20 
1.05
 11 
2.326
 21 
1.037
 0 
LINE
 8 
0
 62 
 7 
 10 
2.326
 20 
1.037
 11 
2.319
 21 
1.037
 0 
LINE
 8 
0
 62 
 7 
 10 
0.699
 20 
0.313
 11 
0.6
 21 
0.313
 0 
CIRCLE
 8 
0
 62 
 7 
 10 
0.589
 20 
0.323
 40 
0.005
 0 
LINE
 8 
0
 62 
 7 
 10 
0.6
 20 
0.312
 11 
0.6
 21 
0.227
 0 
LINE
 8 
0
 62 
 7 
 10 
0.6
 20 
0.227
 11 
0.699
 21 
0.227
 0 
LINE
 8 
0
 62 
 7 
 10 
0.699
 20 
0.313
 11 
0.699
 21 
0.227
 0 
LINE
 8 
0
 62 
 7 
 10 
0.625
 20 
0.4
 11 
0.625
 21 
0.368
 0 
LINE
 8 
0
 62 
 7 
 10 
0.625
 20 
0.368
 11 
0.631
 21 
0.362
 0 
LINE
 8 
0
 62 
 7 
 10 
0.631
 20 
0.362
 11 
0.644
 21 
0.362
 0 
LINE
 8 
0
 62 
 7 
 10 
0.644
 20 
0.362
 11 
0.65
 21 
0.368
 0 
LINE
 8 
0
 62 
 7 
 10 
0.65
 20 
0.368
 11 
0.65
 21 
0.4
 0 
LINE
 8 
0
 62 
 7 
 10 
0.663
 20 
0.394
 11 
0.663
 21 
0.4
 0 
LINE
 8 
0
 62 
 7 
 10 
0.663
 20 
0.4
 11 
0.688
 21 
0.4
 0 
LINE
 8 
0
 62 
 7 
 10 
0.688
 20 
0.4
 11 
0.688
 21 
0.394
 0 
LINE
 8 
0
 62 
 7 
 10 
0.688
 20 
0.394
 11 
0.669
 21 
0.375
 0 
LINE
 8 
0
 62 
 7 
 10 
0.669
 20 
0.375
 11 
0.669
 21 
0.362
 0 
LINE
 8 
0
 62 
 7 
 10 
2.374
 20 
0.613
 11 
2.275
 21 
0.613
 0 
CIRCLE
 8 
0
 62 
 7 
 10 
2.264
 20 
0.623
 40 
0.005
 0 
LINE
 8 
0
 62 
 7 
 10 
2.275
 20 
0.612
 11 
2.275
 21 
0.527
 0 
LINE
 8 
0
 62 
 7 
 10 
2.275
 20 
0.527
 11 
2.374
 21 
0.527
 0 
LINE
 8 
0
 62 
 7 
 10 
2.374
 20 
0.613
 11 
2.374
 21 
0.527
 0 
LINE
 8 
0
 62 
 7 
 10 
2.275
 20 
0.725
 11 
2.275
 21 
0.693
 0 
LINE
 8 
0
 62 
 7 
 10 
2.275
 20 
0.693
 11 
2.281
 21 
0.687
 0 
LINE
 8 
0
 62 
 7 
 10 
2.281
 20 
0.687
 11 
2.294
 21 
0.687
 0 
LINE
 8 
0
 62 
 7 
 10 
2.294
 20 
0.687
 11 
2.3
 21 
0.693
 0 
LINE
 8 
0
 62 
 7 
 10 
2.3
 20 
0.693
 11 
2.3
 21 
0.725
 0 
LINE
 8 
0
 62 
 7 
 10 
2.319
 20 
0.706
 11 
2.313
 21 
0.712
 0 
LINE
 8 
0
 62 
 7 
 10 
2.313
 20 
0.712
 11 
2.313
 21 
0.719
 0 
LINE
 8 
0
 62 
 7 
 10 
2.313
 20 
0.719
 11 
2.319
 21 
0.725
 0 
LINE
 8 
0
 62 
 7 
 10 
2.319
 20 
0.725
 11 
2.332
 21 
0.725
 0 
LINE
 8 
0
 62 
 7 
 10 
2.332
 20 
0.725
 11 
2.338
 21 
0.719
 0 
LINE
 8 
0
 62 
 7 
 10 
2.338
 20 
0.719
 11 
2.338
 21 
0.712
 0 
LINE
 8 
0
 62 
 7 
 10 
2.338
 20 
0.712
 11 
2.332
 21 
0.706
 0 
LINE
 8 
0
 62 
 7 
 10 
2.332
 20 
0.706
 11 
2.319
 21 
0.706
 0 
LINE
 8 
0
 62 
 7 
 10 
2.319
 20 
0.706
 11 
2.313
 21 
0.7
 0 
LINE
 8 
0
 62 
 7 
 10 
2.313
 20 
0.7
 11 
2.313
 21 
0.693
 0 
LINE
 8 
0
 62 
 7 
 10 
2.313
 20 
0.693
 11 
2.319
 21 
0.687
 0 
LINE
 8 
0
 62 
 7 
 10 
2.319
 20 
0.687
 11 
2.332
 21 
0.687
 0 
LINE
 8 
0
 62 
 7 
 10 
2.332
 20 
0.687
 11 
2.338
 21 
0.693
 0 
LINE
 8 
0
 62 
 7 
 10 
2.338
 20 
0.693
 11 
2.338
 21 
0.7
 0 
LINE
 8 
0
 62 
 7 
 10 
2.338
 20 
0.7
 11 
2.332
 21 
0.706
 0 
LINE
 8 
0
 62 
 7 
 10 
2.374
 20 
1.288
 11 
2.275
 21 
1.288
 0 
CIRCLE
 8 
0
 62 
 7 
 10 
2.264
 20 
1.298
 40 
0.005
 0 
LINE
 8 
0
 62 
 7 
 10 
2.275
 20 
1.287
 11 
2.275
 21 
1.202
 0 
LINE
 8 
0
 62 
 7 
 10 
2.275
 20 
1.202
 11 
2.374
 21 
1.202
 0 
LINE
 8 
0
 62 
 7 
 10 
2.374
 20 
1.288
 11 
2.374
 21 
1.202
 0 
LINE
 8 
0
 62 
 7 
 10 
2.275
 20 
1.4
 11 
2.275
 21 
1.368
 0 
LINE
 8 
0
 62 
 7 
 10 
2.275
 20 
1.368
 11 
2.281
 21 
1.362
 0 
LINE
 8 
0
 62 
 7 
 10 
2.281
 20 
1.362
 11 
2.294
 21 
1.362
 0 
LINE
 8 
0
 62 
 7 
 10 
2.294
 20 
1.362
 11 
2.3
 21 
1.368
 0 
LINE
 8 
0
 62 
 7 
 10 
2.3
 20 
1.368
 11 
2.3
 21 
1.4
 0 
LINE
 8 
0
 62 
 7 
 10 
2.319
 20 
1.394
 11 
2.326
 21 
1.4
 0 
LINE
 8 
0
 62 
 7 
 10 
2.326
 20 
1.4
 11 
2.326
 21 
1.362
 0 
LINE
 8 
0
 62 
 7 
 10 
2.319
 20 
1.362
 11 
2.332
 21 
1.362
 0 
LINE
 8 
0
 62 
 7 
 10 
2.351
 20 
1.368
 11 
2.351
 21 
1.394
 0 
LINE
 8 
0
 62 
 7 
 10 
2.351
 20 
1.394
 11 
2.357
 21 
1.4
 0 
LINE
 8 
0
 62 
 7 
 10 
2.357
 20 
1.4
 11 
2.37
 21 
1.4
 0 
LINE
 8 
0
 62 
 7 
 10 
2.37
 20 
1.4
 11 
2.376
 21 
1.394
 0 
LINE
 8 
0
 62 
 7 
 10 
2.376
 20 
1.394
 11 
2.376
 21 
1.368
 0 
LINE
 8 
0
 62 
 7 
 10 
2.376
 20 
1.368
 11 
2.37
 21 
1.362
 0 
LINE
 8 
0
 62 
 7 
 10 
2.37
 20 
1.362
 11 
2.357
 21 
1.362
 0 
LINE
 8 
0
 62 
 7 
 10 
2.357
 20 
1.362
 11 
2.351
 21 
1.368
 0 
LINE
 8 
0
 62 
 7 
 10 
2.351
 20 
1.368
 11 
2.376
 21 
1.394
 0 
CIRCLE
 8 
0
 62 
 7 
 10 
2.75
 20 
1.225
 40 
0.02
 0 
CIRCLE
 8 
0
 62 
 7 
 10 
2.75
 20 
1.025
 40 
0.02
 0 
CIRCLE
 8 
0
 62 
 7 
 10 
2.75
 20 
0.925
 40 
0.02
 0 
CIRCLE
 8 
0
 62 
 7 
 10 
2.75
 20 
0.825
 40 
0.02
 0 
CIRCLE
 8 
0
 62 
 7 
 10 
2.95
 20 
0.825
 40 
0.02
 0 
CIRCLE
 8 
0
 62 
 7 
 10 
2.95
 20 
0.925
 40 
0.02
 0 
CIRCLE
 8 
0
 62 
 7 
 10 
2.95
 20 
1.025
 40 
0.02
 0 
CIRCLE
 8 
0
 62 
 7 
 10 
2.95
 20 
1.225
 40 
0.02
 0 
LINE
 8 
0
 62 
 7 
 10 
2.7
 20 
1.275
 11 
2.7
 21 
0.675
 0 
LINE
 8 
0
 62 
 7 
 10 
2.7
 20 
0.675
 11 
3.0
 21 
0.675
 0 
LINE
 8 
0
 62 
 7 
 10 
3.0
 20 
0.675
 11 
3.0
 21 
1.275
 0 
LINE
 8 
0
 62 
 7 
 10 
2.7
 20 
1.275
 11 
3.0
 21 
1.275
 0 
LINE
 8 
0
 62 
 7 
 10 
2.825
 20 
1.325
 11 
2.825
 21 
1.287
 0 
LINE
 8 
0
 62 
 7 
 10 
2.85
 20 
1.325
 11 
2.831
 21 
1.306
 0 
LINE
 8 
0
 62 
 7 
 10 
2.825
 20 
1.306
 11 
2.831
 21 
1.306
 0 
LINE
 8 
0
 62 
 7 
 10 
2.831
 20 
1.306
 11 
2.85
 21 
1.287
 0 
LINE
 8 
0
 62 
 7 
 10 
2.869
 20 
1.319
 11 
2.876
 21 
1.325
 0 
LINE
 8 
0
 62 
 7 
 10 
2.876
 20 
1.325
 11 
2.876
 21 
1.287
 0 
LINE
 8 
0
 62 
 7 
 10 
2.869
 20 
1.287
 11 
2.882
 21 
1.287
 0 
CIRCLE
 8 
0
 62 
 7 
 10 
3.15
 20 
1.225
 40 
0.02
 0 
CIRCLE
 8 
0
 62 
 7 
 10 
3.15
 20 
1.025
 40 
0.02
 0 
CIRCLE
 8 
0
 62 
 7 
 10 
3.15
 20 
0.925
 40 
0.02
 0 
CIRCLE
 8 
0
 62 
 7 
 10 
3.15
 20 
0.825
 40 
0.02
 0 
CIRCLE
 8 
0
 62 
 7 
 10 
3.35
 20 
0.825
 40 
0.02
 0 
CIRCLE
 8 
0
 62 
 7 
 10 
3.35
 20 
0.925
 40 
0.02
 0 
CIRCLE
 8 
0
 62 
 7 
 10 
3.35
 20 
1.025
 40 
0.02
 0 
CIRCLE
 8 
0
 62 
 7 
 10 
3.35
 20 
1.225
 40 
0.02
 0 
LINE
 8 
0
 62 
 7 
 10 
3.1
 20 
1.275
 11 
3.1
 21 
0.675
 0 
LINE
 8 
0
 62 
 7 
 10 
3.1
 20 
0.675
 11 
3.4
 21 
0.675
 0 
LINE
 8 
0
 62 
 7 
 10 
3.4
 20 
0.675
 11 
3.4
 21 
1.275
 0 
LINE
 8 
0
 62 
 7 
 10 
3.1
 20 
1.275
 11 
3.4
 21 
1.275
 0 
LINE
 8 
0
 62 
 7 
 10 
3.225
 20 
1.325
 11 
3.225
 21 
1.287
 0 
LINE
 8 
0
 62 
 7 
 10 
3.25
 20 
1.325
 11 
3.231
 21 
1.306
 0 
LINE
 8 
0
 62 
 7 
 10 
3.225
 20 
1.306
 11 
3.231
 21 
1.306
 0 
LINE
 8 
0
 62 
 7 
 10 
3.231
 20 
1.306
 11 
3.25
 21 
1.287
 0 
LINE
 8 
0
 62 
 7 
 10 
3.263
 20 
1.319
 11 
3.269
 21 
1.325
 0 
LINE
 8 
0
 62 
 7 
 10 
3.269
 20 
1.325
 11 
3.282
 21 
1.325
 0 
LINE
 8 
0
 62 
 7 
 10 
3.282
 20 
1.325
 11 
3.288
 21 
1.319
 0 
LINE
 8 
0
 62 
 7 
 10 
3.288
 20 
1.319
 11 
3.288
 21 
1.312
 0 
LINE
 8 
0
 62 
 7 
 10 
3.288
 20 
1.312
 11 
3.282
 21 
1.306
 0 
LINE
 8 
0
 62 
 7 
 10 
3.282
 20 
1.306
 11 
3.269
 21 
1.306
 0 
LINE
 8 
0
 62 
 7 
 10 
3.269
 20 
1.306
 11 
3.263
 21 
1.3
 0 
LINE
 8 
0
 62 
 7 
 10 
3.263
 20 
1.3
 11 
3.263
 21 
1.287
 0 
LINE
 8 
0
 62 
 7 
 10 
3.263
 20 
1.287
 11 
3.288
 21 
1.287
 0 
CIRCLE
 8 
0
 62 
 7 
 10 
3.55
 20 
1.225
 40 
0.02
 0 
CIRCLE
 8 
0
 62 
 7 
 10 
3.55
 20 
1.025
 40 
0.02
 0 
CIRCLE
 8 
0
 62 
 7 
 10 
3.55
 20 
0.925
 40 
0.02
 0 
CIRCLE
 8 
0
 62 
 7 
 10 
3.55
 20 
0.825
 40 
0.02
 0 
CIRCLE
 8 
0
 62 
 7 
 10 
3.75
 20 
0.825
 40 
0.02
 0 
CIRCLE
 8 
0
 62 
 7 
 10 
3.75
 20 
0.925
 40 
0.02
 0 
CIRCLE
 8 
0
 62 
 7 
 10 
3.75
 20 
1.025
 40 
0.02
 0 
CIRCLE
 8 
0
 62 
 7 
 10 
3.75
 20 
1.225
 40 
0.02
 0 
LINE
 8 
0
 62 
 7 
 10 
3.5
 20 
1.275
 11 
3.5
 21 
0.675
 0 
LINE
 8 
0
 62 
 7 
 10 
3.5
 20 
0.675
 11 
3.8
 21 
0.675
 0 
LINE
 8 
0
 62 
 7 
 10 
3.8
 20 
0.675
 11 
3.8
 21 
1.275
 0 
LINE
 8 
0
 62 
 7 
 10 
3.5
 20 
1.275
 11 
3.8
 21 
1.275
 0 
LINE
 8 
0
 62 
 7 
 10 
3.625
 20 
1.325
 11 
3.625
 21 
1.287
 0 
LINE
 8 
0
 62 
 7 
 10 
3.65
 20 
1.325
 11 
3.631
 21 
1.306
 0 
LINE
 8 
0
 62 
 7 
 10 
3.625
 20 
1.306
 11 
3.631
 21 
1.306
 0 
LINE
 8 
0
 62 
 7 
 10 
3.631
 20 
1.306
 11 
3.65
 21 
1.287
 0 
LINE
 8 
0
 62 
 7 
 10 
3.663
 20 
1.319
 11 
3.669
 21 
1.325
 0 
LINE
 8 
0
 62 
 7 
 10 
3.669
 20 
1.325
 11 
3.682
 21 
1.325
 0 
LINE
 8 
0
 62 
 7 
 10 
3.682
 20 
1.325
 11 
3.688
 21 
1.319
 0 
LINE
 8 
0
 62 
 7 
 10 
3.688
 20 
1.319
 11 
3.688
 21 
1.312
 0 
LINE
 8 
0
 62 
 7 
 10 
3.688
 20 
1.312
 11 
3.682
 21 
1.306
 0 
LINE
 8 
0
 62 
 7 
 10 
3.682
 20 
1.306
 11 
3.676
 21 
1.306
 0 
LINE
 8 
0
 62 
 7 
 10 
3.682
 20 
1.306
 11 
3.688
 21 
1.3
 0 
LINE
 8 
0
 62 
 7 
 10 
3.688
 20 
1.3
 11 
3.688
 21 
1.293
 0 
LINE
 8 
0
 62 
 7 
 10 
3.688
 20 
1.293
 11 
3.682
 21 
1.287
 0 
LINE
 8 
0
 62 
 7 
 10 
3.682
 20 
1.287
 11 
3.669
 21 
1.287
 0 
LINE
 8 
0
 62 
 7 
 10 
3.669
 20 
1.287
 11 
3.663
 21 
1.293
 0 
CIRCLE
 8 
0
 62 
 7 
 10 
3.95
 20 
1.225
 40 
0.02
 0 
CIRCLE
 8 
0
 62 
 7 
 10 
3.95
 20 
1.025
 40 
0.02
 0 
CIRCLE
 8 
0
 62 
 7 
 10 
3.95
 20 
0.925
 40 
0.02
 0 
CIRCLE
 8 
0
 62 
 7 
 10 
3.95
 20 
0.825
 40 
0.02
 0 
CIRCLE
 8 
0
 62 
 7 
 10 
4.15
 20 
0.825
 40 
0.02
 0 
CIRCLE
 8 
0
 62 
 7 
 10 
4.15
 20 
0.925
 40 
0.02
 0 
CIRCLE
 8 
0
 62 
 7 
 10 
4.15
 20 
1.025
 40 
0.02
 0 
CIRCLE
 8 
0
 62 
 7 
 10 
4.15
 20 
1.225
 40 
0.02
 0 
LINE
 8 
0
 62 
 7 
 10 
3.9
 20 
1.275
 11 
3.9
 21 
0.675
 0 
LINE
 8 
0
 62 
 7 
 10 
3.9
 20 
0.675
 11 
4.2
 21 
0.675
 0 
LINE
 8 
0
 62 
 7 
 10 
4.2
 20 
0.675
 11 
4.2
 21 
1.275
 0 
LINE
 8 
0
 62 
 7 
 10 
3.9
 20 
1.275
 11 
4.2
 21 
1.275
 0 
LINE
 8 
0
 62 
 7 
 10 
4.0
 20 
1.325
 11 
4.0
 21 
1.287
 0 
LINE
 8 
0
 62 
 7 
 10 
4.025
 20 
1.325
 11 
4.006
 21 
1.306
 0 
LINE
 8 
0
 62 
 7 
 10 
4.0
 20 
1.306
 11 
4.006
 21 
1.306
 0 
LINE
 8 
0
 62 
 7 
 10 
4.006
 20 
1.306
 11 
4.025
 21 
1.287
 0 
LINE
 8 
0
 62 
 7 
 10 
4.063
 20 
1.3
 11 
4.038
 21 
1.3
 0 
LINE
 8 
0
 62 
 7 
 10 
4.038
 20 
1.3
 11 
4.038
 21 
1.306
 0 
LINE
 8 
0
 62 
 7 
 10 
4.038
 20 
1.306
 11 
4.057
 21 
1.325
 0 
LINE
 8 
0
 62 
 7 
 10 
4.057
 20 
1.325
 11 
4.057
 21 
1.287
 0 
CIRCLE
 8 
0
 62 
 7 
 10 
4.35
 20 
1.225
 40 
0.02
 0 
CIRCLE
 8 
0
 62 
 7 
 10 
4.35
 20 
1.025
 40 
0.02
 0 
CIRCLE
 8 
0
 62 
 7 
 10 
4.35
 20 
0.925
 40 
0.02
 0 
CIRCLE
 8 
0
 62 
 7 
 10 
4.35
 20 
0.825
 40 
0.02
 0 
CIRCLE
 8 
0
 62 
 7 
 10 
4.55
 20 
0.825
 40 
0.02
 0 
CIRCLE
 8 
0
 62 
 7 
 10 
4.55
 20 
0.925
 40 
0.02
 0 
CIRCLE
 8 
0
 62 
 7 
 10 
4.55
 20 
1.025
 40 
0.02
 0 
CIRCLE
 8 
0
 62 
 7 
 10 
4.55
 20 
1.225
 40 
0.02
 0 
CIRCLE
 8 
0
 62 
 7 
 10 
4.75
 20 
1.225
 40 
0.02
 0 
CIRCLE
 8 
0
 62 
 7 
 10 
4.75
 20 
1.025
 40 
0.02
 0 
CIRCLE
 8 
0
 62 
 7 
 10 
4.75
 20 
0.925
 40 
0.02
 0 
CIRCLE
 8 
0
 62 
 7 
 10 
4.75
 20 
0.825
 40 
0.02
 0 
CIRCLE
 8 
0
 62 
 7 
 10 
4.95
 20 
0.825
 40 
0.02
 0 
CIRCLE
 8 
0
 62 
 7 
 10 
4.95
 20 
0.925
 40 
0.02
 0 
CIRCLE
 8 
0
 62 
 7 
 10 
4.95
 20 
1.025
 40 
0.02
 0 
CIRCLE
 8 
0
 62 
 7 
 10 
4.95
 20 
1.225
 40 
0.02
 0 
CIRCLE
 8 
0
 62 
 7 
 10 
5.15
 20 
1.225
 40 
0.02
 0 
CIRCLE
 8 
0
 62 
 7 
 10 
5.15
 20 
1.025
 40 
0.02
 0 
CIRCLE
 8 
0
 62 
 7 
 10 
5.15
 20 
0.925
 40 
0.02
 0 
CIRCLE
 8 
0
 62 
 7 
 10 
5.15
 20 
0.825
 40 
0.02
 0 
CIRCLE
 8 
0
 62 
 7 
 10 
5.35
 20 
0.825
 40 
0.02
 0 
CIRCLE
 8 
0
 62 
 7 
 10 
5.35
 20 
0.925
 40 
0.02
 0 
CIRCLE
 8 
0
 62 
 7 
 10 
5.35
 20 
1.025
 40 
0.02
 0 
CIRCLE
 8 
0
 62 
 7 
 10 
5.35
 20 
1.225
 40 
0.02
 0 
CIRCLE
 8 
0
 62 
 7 
 10 
5.55
 20 
1.225
 40 
0.02
 0 
CIRCLE
 8 
0
 62 
 7 
 10 
5.55
 20 
1.025
 40 
0.02
 0 
CIRCLE
 8 
0
 62 
 7 
 10 
5.55
 20 
0.925
 40 
0.02
 0 
CIRCLE
 8 
0
 62 
 7 
 10 
5.55
 20 
0.825
 40 
0.02
 0 
CIRCLE
 8 
0
 62 
 7 
 10 
5.75
 20 
0.825
 40 
0.02
 0 
CIRCLE
 8 
0
 62 
 7 
 10 
5.75
 20 
0.925
 40 
0.02
 0 
CIRCLE
 8 
0
 62 
 7 
 10 
5.75
 20 
1.025
 40 
0.02
 0 
CIRCLE
 8 
0
 62 
 7 
 10 
5.75
 20 
1.225
 40 
0.02
 0 
LINE
 8 
0
 62 
 7 
 10 
4.3
 20 
1.275
 11 
4.3
 21 
0.675
 0 
LINE
 8 
0
 62 
 7 
 10 
4.3
 20 
0.675
 11 
4.6
 21 
0.675
 0 
LINE
 8 
0
 62 
 7 
 10 
4.6
 20 
0.675
 11 
4.6
 21 
1.275
 0 
LINE
 8 
0
 62 
 7 
 10 
4.3
 20 
1.275
 11 
4.6
 21 
1.275
 0 
LINE
 8 
0
 62 
 7 
 10 
4.4
 20 
1.325
 11 
4.4
 21 
1.287
 0 
LINE
 8 
0
 62 
 7 
 10 
4.425
 20 
1.325
 11 
4.406
 21 
1.306
 0 
LINE
 8 
0
 62 
 7 
 10 
4.4
 20 
1.306
 11 
4.406
 21 
1.306
 0 
LINE
 8 
0
 62 
 7 
 10 
4.406
 20 
1.306
 11 
4.425
 21 
1.287
 0 
LINE
 8 
0
 62 
 7 
 10 
4.463
 20 
1.325
 11 
4.438
 21 
1.325
 0 
LINE
 8 
0
 62 
 7 
 10 
4.438
 20 
1.325
 11 
4.438
 21 
1.312
 0 
LINE
 8 
0
 62 
 7 
 10 
4.438
 20 
1.312
 11 
4.457
 21 
1.312
 0 
LINE
 8 
0
 62 
 7 
 10 
4.457
 20 
1.312
 11 
4.463
 21 
1.306
 0 
LINE
 8 
0
 62 
 7 
 10 
4.463
 20 
1.306
 11 
4.463
 21 
1.293
 0 
LINE
 8 
0
 62 
 7 
 10 
4.463
 20 
1.293
 11 
4.457
 21 
1.287
 0 
LINE
 8 
0
 62 
 7 
 10 
4.457
 20 
1.287
 11 
4.444
 21 
1.287
 0 
LINE
 8 
0
 62 
 7 
 10 
4.444
 20 
1.287
 11 
4.438
 21 
1.293
 0 
LINE
 8 
0
 62 
 7 
 10 
4.7
 20 
1.275
 11 
4.7
 21 
0.675
 0 
LINE
 8 
0
 62 
 7 
 10 
4.7
 20 
0.675
 11 
5.0
 21 
0.675
 0 
LINE
 8 
0
 62 
 7 
 10 
5.0
 20 
0.675
 11 
5.0
 21 
1.275
 0 
LINE
 8 
0
 62 
 7 
 10 
4.7
 20 
1.275
 11 
5.0
 21 
1.275
 0 
LINE
 8 
0
 62 
 7 
 10 
4.8
 20 
1.325
 11 
4.8
 21 
1.287
 0 
LINE
 8 
0
 62 
 7 
 10 
4.825
 20 
1.325
 11 
4.806
 21 
1.306
 0 
LINE
 8 
0
 62 
 7 
 10 
4.8
 20 
1.306
 11 
4.806
 21 
1.306
 0 
LINE
 8 
0
 62 
 7 
 10 
4.806
 20 
1.306
 11 
4.825
 21 
1.287
 0 
LINE
 8 
0
 62 
 7 
 10 
4.857
 20 
1.325
 11 
4.851
 21 
1.325
 0 
LINE
 8 
0
 62 
 7 
 10 
4.851
 20 
1.325
 11 
4.838
 21 
1.312
 0 
LINE
 8 
0
 62 
 7 
 10 
4.838
 20 
1.312
 11 
4.838
 21 
1.293
 0 
LINE
 8 
0
 62 
 7 
 10 
4.838
 20 
1.293
 11 
4.844
 21 
1.287
 0 
LINE
 8 
0
 62 
 7 
 10 
4.844
 20 
1.287
 11 
4.857
 21 
1.287
 0 
LINE
 8 
0
 62 
 7 
 10 
4.857
 20 
1.287
 11 
4.863
 21 
1.293
 0 
LINE
 8 
0
 62 
 7 
 10 
4.863
 20 
1.293
 11 
4.863
 21 
1.3
 0 
LINE
 8 
0
 62 
 7 
 10 
4.863
 20 
1.3
 11 
4.857
 21 
1.306
 0 
LINE
 8 
0
 62 
 7 
 10 
4.857
 20 
1.306
 11 
4.844
 21 
1.306
 0 
LINE
 8 
0
 62 
 7 
 10 
4.844
 20 
1.306
 11 
4.838
 21 
1.3
 0 
LINE
 8 
0
 62 
 7 
 10 
5.1
 20 
1.275
 11 
5.1
 21 
0.675
 0 
LINE
 8 
0
 62 
 7 
 10 
5.1
 20 
0.675
 11 
5.4
 21 
0.675
 0 
LINE
 8 
0
 62 
 7 
 10 
5.4
 20 
0.675
 11 
5.4
 21 
1.275
 0 
LINE
 8 
0
 62 
 7 
 10 
5.1
 20 
1.275
 11 
5.4
 21 
1.275
 0 
LINE
 8 
0
 62 
 7 
 10 
5.2
 20 
1.325
 11 
5.2
 21 
1.287
 0 
LINE
 8 
0
 62 
 7 
 10 
5.225
 20 
1.325
 11 
5.206
 21 
1.306
 0 
LINE
 8 
0
 62 
 7 
 10 
5.2
 20 
1.306
 11 
5.206
 21 
1.306
 0 
LINE
 8 
0
 62 
 7 
 10 
5.206
 20 
1.306
 11 
5.225
 21 
1.287
 0 
LINE
 8 
0
 62 
 7 
 10 
5.238
 20 
1.319
 11 
5.238
 21 
1.325
 0 
LINE
 8 
0
 62 
 7 
 10 
5.238
 20 
1.325
 11 
5.263
 21 
1.325
 0 
LINE
 8 
0
 62 
 7 
 10 
5.263
 20 
1.325
 11 
5.263
 21 
1.319
 0 
LINE
 8 
0
 62 
 7 
 10 
5.263
 20 
1.319
 11 
5.244
 21 
1.3
 0 
LINE
 8 
0
 62 
 7 
 10 
5.244
 20 
1.3
 11 
5.244
 21 
1.287
 0 
LINE
 8 
0
 62 
 7 
 10 
5.5
 20 
1.275
 11 
5.5
 21 
0.675
 0 
LINE
 8 
0
 62 
 7 
 10 
5.5
 20 
0.675
 11 
5.8
 21 
0.675
 0 
LINE
 8 
0
 62 
 7 
 10 
5.8
 20 
0.675
 11 
5.8
 21 
1.275
 0 
LINE
 8 
0
 62 
 7 
 10 
5.5
 20 
1.275
 11 
5.8
 21 
1.275
 0 
LINE
 8 
0
 62 
 7 
 10 
5.6
 20 
1.325
 11 
5.6
 21 
1.287
 0 
LINE
 8 
0
 62 
 7 
 10 
5.625
 20 
1.325
 11 
5.606
 21 
1.306
 0 
LINE
 8 
0
 62 
 7 
 10 
5.6
 20 
1.306
 11 
5.606
 21 
1.306
 0 
LINE
 8 
0
 62 
 7 
 10 
5.606
 20 
1.306
 11 
5.625
 21 
1.287
 0 
LINE
 8 
0
 62 
 7 
 10 
5.644
 20 
1.306
 11 
5.638
 21 
1.312
 0 
LINE
 8 
0
 62 
 7 
 10 
5.638
 20 
1.312
 11 
5.638
 21 
1.319
 0 
LINE
 8 
0
 62 
 7 
 10 
5.638
 20 
1.319
 11 
5.644
 21 
1.325
 0 
LINE
 8 
0
 62 
 7 
 10 
5.644
 20 
1.325
 11 
5.657
 21 
1.325
 0 
LINE
 8 
0
 62 
 7 
 10 
5.657
 20 
1.325
 11 
5.663
 21 
1.319
 0 
LINE
 8 
0
 62 
 7 
 10 
5.663
 20 
1.319
 11 
5.663
 21 
1.312
 0 
LINE
 8 
0
 62 
 7 
 10 
5.663
 20 
1.312
 11 
5.657
 21 
1.306
 0 
LINE
 8 
0
 62 
 7 
 10 
5.657
 20 
1.306
 11 
5.644
 21 
1.306
 0 
LINE
 8 
0
 62 
 7 
 10 
5.644
 20 
1.306
 11 
5.638
 21 
1.3
 0 
LINE
 8 
0
 62 
 7 
 10 
5.638
 20 
1.3
 11 
5.638
 21 
1.293
 0 
LINE
 8 
0
 62 
 7 
 10 
5.638
 20 
1.293
 11 
5.644
 21 
1.287
 0 
LINE
 8 
0
 62 
 7 
 10 
5.644
 20 
1.287
 11 
5.657
 21 
1.287
 0 
LINE
 8 
0
 62 
 7 
 10 
5.657
 20 
1.287
 11 
5.663
 21 
1.293
 0 
LINE
 8 
0
 62 
 7 
 10 
5.663
 20 
1.293
 11 
5.663
 21 
1.3
 0 
LINE
 8 
0
 62 
 7 
 10 
5.663
 20 
1.3
 11 
5.657
 21 
1.306
 0 
CIRCLE
 8 
0
 62 
 7 
 10 
2.8
 20 
0.5
 40 
0.018
 0 
CIRCLE
 8 
0
 62 
 7 
 10 
2.9
 20 
0.5
 40 
0.018
 0 
CIRCLE
 8 
0
 62 
 7 
 10 
2.8
 20 
0.4
 40 
0.018
 0 
CIRCLE
 8 
0
 62 
 7 
 10 
2.9
 20 
0.4
 40 
0.018
 0 
CIRCLE
 8 
0
 62 
 7 
 10 
2.8
 20 
0.3
 40 
0.018
 0 
CIRCLE
 8 
0
 62 
 7 
 10 
2.9
 20 
0.3
 40 
0.018
 0 
LINE
 8 
0
 62 
 7 
 10 
2.806
 20 
0.625
 11 
2.825
 21 
0.625
 0 
LINE
 8 
0
 62 
 7 
 10 
2.825
 20 
0.625
 11 
2.825
 21 
0.593
 0 
LINE
 8 
0
 62 
 7 
 10 
2.825
 20 
0.593
 11 
2.819
 21 
0.587
 0 
LINE
 8 
0
 62 
 7 
 10 
2.819
 20 
0.587
 11 
2.806
 21 
0.587
 0 
LINE
 8 
0
 62 
 7 
 10 
2.806
 20 
0.587
 11 
2.8
 21 
0.593
 0 
LINE
 8 
0
 62 
 7 
 10 
2.863
 20 
0.6
 11 
2.838
 21 
0.6
 0 
LINE
 8 
0
 62 
 7 
 10 
2.838
 20 
0.6
 11 
2.838
 21 
0.606
 0 
LINE
 8 
0
 62 
 7 
 10 
2.838
 20 
0.606
 11 
2.857
 21 
0.625
 0 
LINE
 8 
0
 62 
 7 
 10 
2.857
 20 
0.625
 11 
2.857
 21 
0.587
 0 
CIRCLE
 8 
0
 62 
 7 
 10 
3.2
 20 
0.5
 40 
0.018
 0 
CIRCLE
 8 
0
 62 
 7 
 10 
3.3
 20 
0.5
 40 
0.018
 0 
CIRCLE
 8 
0
 62 
 7 
 10 
3.2
 20 
0.4
 40 
0.018
 0 
LINE
 8 
0
 62 
 7 
 10 
2.75
 20 
0.55
 11 
2.95
 21 
0.55
 0 
LINE
 8 
0
 62 
 7 
 10 
2.95
 20 
0.25
 11 
2.95
 21 
0.55
 0 
LINE
 8 
0
 62 
 7 
 10 
2.95
 20 
0.25
 11 
2.75
 21 
0.25
 0 
LINE
 8 
0
 62 
 7 
 10 
2.75
 20 
0.55
 11 
2.75
 21 
0.25
 0 
CIRCLE
 8 
0
 62 
 7 
 10 
3.3
 20 
0.4
 40 
0.018
 0 
CIRCLE
 8 
0
 62 
 7 
 10 
3.2
 20 
0.3
 40 
0.018
 0 
CIRCLE
 8 
0
 62 
 7 
 10 
3.3
 20 
0.3
 40 
0.018
 0 
LINE
 8 
0
 62 
 7 
 10 
3.15
 20 
0.55
 11 
3.35
 21 
0.55
 0 
LINE
 8 
0
 62 
 7 
 10 
3.35
 20 
0.25
 11 
3.35
 21 
0.55
 0 
LINE
 8 
0
 62 
 7 
 10 
3.35
 20 
0.25
 11 
3.15
 21 
0.25
 0 
LINE
 8 
0
 62 
 7 
 10 
3.15
 20 
0.55
 11 
3.15
 21 
0.25
 0 
LINE
 8 
0
 62 
 7 
 10 
3.206
 20 
0.625
 11 
3.225
 21 
0.625
 0 
LINE
 8 
0
 62 
 7 
 10 
3.225
 20 
0.625
 11 
3.225
 21 
0.593
 0 
LINE
 8 
0
 62 
 7 
 10 
3.225
 20 
0.593
 11 
3.219
 21 
0.587
 0 
LINE
 8 
0
 62 
 7 
 10 
3.219
 20 
0.587
 11 
3.206
 21 
0.587
 0 
LINE
 8 
0
 62 
 7 
 10 
3.206
 20 
0.587
 11 
3.2
 21 
0.593
 0 
LINE
 8 
0
 62 
 7 
 10 
3.263
 20 
0.625
 11 
3.238
 21 
0.625
 0 
LINE
 8 
0
 62 
 7 
 10 
3.238
 20 
0.625
 11 
3.238
 21 
0.612
 0 
LINE
 8 
0
 62 
 7 
 10 
3.238
 20 
0.612
 11 
3.257
 21 
0.612
 0 
LINE
 8 
0
 62 
 7 
 10 
3.257
 20 
0.612
 11 
3.263
 21 
0.606
 0 
LINE
 8 
0
 62 
 7 
 10 
3.263
 20 
0.606
 11 
3.263
 21 
0.593
 0 
LINE
 8 
0
 62 
 7 
 10 
3.263
 20 
0.593
 11 
3.257
 21 
0.587
 0 
LINE
 8 
0
 62 
 7 
 10 
3.257
 20 
0.587
 11 
3.244
 21 
0.587
 0 
LINE
 8 
0
 62 
 7 
 10 
3.244
 20 
0.587
 11 
3.238
 21 
0.593
 0 
CIRCLE
 8 
0
 62 
 7 
 10 
3.6
 20 
0.5
 40 
0.018
 0 
CIRCLE
 8 
0
 62 
 7 
 10 
3.7
 20 
0.5
 40 
0.018
 0 
CIRCLE
 8 
0
 62 
 7 
 10 
3.6
 20 
0.4
 40 
0.018
 0 
CIRCLE
 8 
0
 62 
 7 
 10 
3.7
 20 
0.4
 40 
0.018
 0 
CIRCLE
 8 
0
 62 
 7 
 10 
3.6
 20 
0.3
 40 
0.018
 0 
CIRCLE
 8 
0
 62 
 7 
 10 
3.7
 20 
0.3
 40 
0.018
 0 
LINE
 8 
0
 62 
 7 
 10 
3.55
 20 
0.55
 11 
3.75
 21 
0.55
 0 
LINE
 8 
0
 62 
 7 
 10 
3.75
 20 
0.25
 11 
3.75
 21 
0.55
 0 
LINE
 8 
0
 62 
 7 
 10 
3.75
 20 
0.25
 11 
3.55
 21 
0.25
 0 
LINE
 8 
0
 62 
 7 
 10 
3.55
 20 
0.55
 11 
3.55
 21 
0.25
 0 
LINE
 8 
0
 62 
 7 
 10 
3.631
 20 
0.625
 11 
3.65
 21 
0.625
 0 
LINE
 8 
0
 62 
 7 
 10 
3.65
 20 
0.625
 11 
3.65
 21 
0.593
 0 
LINE
 8 
0
 62 
 7 
 10 
3.65
 20 
0.593
 11 
3.644
 21 
0.587
 0 
LINE
 8 
0
 62 
 7 
 10 
3.644
 20 
0.587
 11 
3.631
 21 
0.587
 0 
LINE
 8 
0
 62 
 7 
 10 
3.631
 20 
0.587
 11 
3.625
 21 
0.593
 0 
LINE
 8 
0
 62 
 7 
 10 
3.682
 20 
0.625
 11 
3.676
 21 
0.625
 0 
LINE
 8 
0
 62 
 7 
 10 
3.676
 20 
0.625
 11 
3.663
 21 
0.612
 0 
LINE
 8 
0
 62 
 7 
 10 
3.663
 20 
0.612
 11 
3.663
 21 
0.593
 0 
LINE
 8 
0
 62 
 7 
 10 
3.663
 20 
0.593
 11 
3.669
 21 
0.587
 0 
LINE
 8 
0
 62 
 7 
 10 
3.669
 20 
0.587
 11 
3.682
 21 
0.587
 0 
LINE
 8 
0
 62 
 7 
 10 
3.682
 20 
0.587
 11 
3.688
 21 
0.593
 0 
LINE
 8 
0
 62 
 7 
 10 
3.688
 20 
0.593
 11 
3.688
 21 
0.6
 0 
LINE
 8 
0
 62 
 7 
 10 
3.688
 20 
0.6
 11 
3.682
 21 
0.606
 0 
LINE
 8 
0
 62 
 7 
 10 
3.682
 20 
0.606
 11 
3.669
 21 
0.606
 0 
LINE
 8 
0
 62 
 7 
 10 
3.669
 20 
0.606
 11 
3.663
 21 
0.6
 0 
CIRCLE
 8 
0
 62 
 7 
 10 
4.0
 20 
0.5
 40 
0.018
 0 
CIRCLE
 8 
0
 62 
 7 
 10 
4.1
 20 
0.5
 40 
0.018
 0 
CIRCLE
 8 
0
 62 
 7 
 10 
4.0
 20 
0.4
 40 
0.018
 0 
CIRCLE
 8 
0
 62 
 7 
 10 
4.1
 20 
0.4
 40 
0.018
 0 
CIRCLE
 8 
0
 62 
 7 
 10 
4.0
 20 
0.3
 40 
0.018
 0 
CIRCLE
 8 
0
 62 
 7 
 10 
4.1
 20 
0.3
 40 
0.018
 0 
LINE
 8 
0
 62 
 7 
 10 
3.95
 20 
0.55
 11 
4.15
 21 
0.55
 0 
LINE
 8 
0
 62 
 7 
 10 
4.15
 20 
0.25
 11 
4.15
 21 
0.55
 0 
LINE
 8 
0
 62 
 7 
 10 
4.15
 20 
0.25
 11 
3.95
 21 
0.25
 0 
LINE
 8 
0
 62 
 7 
 10 
3.95
 20 
0.55
 11 
3.95
 21 
0.25
 0 
LINE
 8 
0
 62 
 7 
 10 
4.031
 20 
0.625
 11 
4.05
 21 
0.625
 0 
LINE
 8 
0
 62 
 7 
 10 
4.05
 20 
0.625
 11 
4.05
 21 
0.593
 0 
LINE
 8 
0
 62 
 7 
 10 
4.05
 20 
0.593
 11 
4.044
 21 
0.587
 0 
LINE
 8 
0
 62 
 7 
 10 
4.044
 20 
0.587
 11 
4.031
 21 
0.587
 0 
LINE
 8 
0
 62 
 7 
 10 
4.031
 20 
0.587
 11 
4.025
 21 
0.593
 0 
LINE
 8 
0
 62 
 7 
 10 
4.063
 20 
0.619
 11 
4.063
 21 
0.625
 0 
LINE
 8 
0
 62 
 7 
 10 
4.063
 20 
0.625
 11 
4.088
 21 
0.625
 0 
LINE
 8 
0
 62 
 7 
 10 
4.088
 20 
0.625
 11 
4.088
 21 
0.619
 0 
LINE
 8 
0
 62 
 7 
 10 
4.088
 20 
0.619
 11 
4.069
 21 
0.6
 0 
LINE
 8 
0
 62 
 7 
 10 
4.069
 20 
0.6
 11 
4.069
 21 
0.587
 0 
CIRCLE
 8 
0
 62 
 7 
 10 
4.4
 20 
0.5
 40 
0.018
 0 
CIRCLE
 8 
0
 62 
 7 
 10 
4.5
 20 
0.5
 40 
0.018
 0 
CIRCLE
 8 
0
 62 
 7 
 10 
4.4
 20 
0.4
 40 
0.018
 0 
CIRCLE
 8 
0
 62 
 7 
 10 
4.5
 20 
0.4
 40 
0.018
 0 
CIRCLE
 8 
0
 62 
 7 
 10 
4.4
 20 
0.3
 40 
0.018
 0 
CIRCLE
 8 
0
 62 
 7 
 10 
4.5
 20 
0.3
 40 
0.018
 0 
LINE
 8 
0
 62 
 7 
 10 
4.35
 20 
0.55
 11 
4.55
 21 
0.55
 0 
LINE
 8 
0
 62 
 7 
 10 
4.55
 20 
0.25
 11 
4.55
 21 
0.55
 0 
LINE
 8 
0
 62 
 7 
 10 
4.55
 20 
0.25
 11 
4.35
 21 
0.25
 0 
LINE
 8 
0
 62 
 7 
 10 
4.35
 20 
0.55
 11 
4.35
 21 
0.25
 0 
LINE
 8 
0
 62 
 7 
 10 
4.431
 20 
0.625
 11 
4.45
 21 
0.625
 0 
LINE
 8 
0
 62 
 7 
 10 
4.45
 20 
0.625
 11 
4.45
 21 
0.593
 0 
LINE
 8 
0
 62 
 7 
 10 
4.45
 20 
0.593
 11 
4.444
 21 
0.587
 0 
LINE
 8 
0
 62 
 7 
 10 
4.444
 20 
0.587
 11 
4.431
 21 
0.587
 0 
LINE
 8 
0
 62 
 7 
 10 
4.431
 20 
0.587
 11 
4.425
 21 
0.593
 0 
LINE
 8 
0
 62 
 7 
 10 
4.469
 20 
0.606
 11 
4.463
 21 
0.612
 0 
LINE
 8 
0
 62 
 7 
 10 
4.463
 20 
0.612
 11 
4.463
 21 
0.619
 0 
LINE
 8 
0
 62 
 7 
 10 
4.463
 20 
0.619
 11 
4.469
 21 
0.625
 0 
LINE
 8 
0
 62 
 7 
 10 
4.469
 20 
0.625
 11 
4.482
 21 
0.625
 0 
LINE
 8 
0
 62 
 7 
 10 
4.482
 20 
0.625
 11 
4.488
 21 
0.619
 0 
LINE
 8 
0
 62 
 7 
 10 
4.488
 20 
0.619
 11 
4.488
 21 
0.612
 0 
LINE
 8 
0
 62 
 7 
 10 
4.488
 20 
0.612
 11 
4.482
 21 
0.606
 0 
LINE
 8 
0
 62 
 7 
 10 
4.482
 20 
0.606
 11 
4.469
 21 
0.606
 0 
LINE
 8 
0
 62 
 7 
 10 
4.469
 20 
0.606
 11 
4.463
 21 
0.6
 0 
LINE
 8 
0
 62 
 7 
 10 
4.463
 20 
0.6
 11 
4.463
 21 
0.593
 0 
LINE
 8 
0
 62 
 7 
 10 
4.463
 20 
0.593
 11 
4.469
 21 
0.587
 0 
LINE
 8 
0
 62 
 7 
 10 
4.469
 20 
0.587
 11 
4.482
 21 
0.587
 0 
LINE
 8 
0
 62 
 7 
 10 
4.482
 20 
0.587
 11 
4.488
 21 
0.593
 0 
LINE
 8 
0
 62 
 7 
 10 
4.488
 20 
0.593
 11 
4.488
 21 
0.6
 0 
LINE
 8 
0
 62 
 7 
 10 
4.488
 20 
0.6
 11 
4.482
 21 
0.606
 0 
CIRCLE
 8 
0
 62 
 7 
 10 
4.8
 20 
0.5
 40 
0.018
 0 
CIRCLE
 8 
0
 62 
 7 
 10 
4.9
 20 
0.5
 40 
0.018
 0 
CIRCLE
 8 
0
 62 
 7 
 10 
4.8
 20 
0.4
 40 
0.018
 0 
CIRCLE
 8 
0
 62 
 7 
 10 
4.9
 20 
0.4
 40 
0.018
 0 
CIRCLE
 8 
0
 62 
 7 
 10 
4.8
 20 
0.3
 40 
0.018
 0 
CIRCLE
 8 
0
 62 
 7 
 10 
4.9
 20 
0.3
 40 
0.018
 0 
LINE
 8 
0
 62 
 7 
 10 
4.75
 20 
0.55
 11 
4.95
 21 
0.55
 0 
LINE
 8 
0
 62 
 7 
 10 
4.95
 20 
0.25
 11 
4.95
 21 
0.55
 0 
LINE
 8 
0
 62 
 7 
 10 
4.95
 20 
0.25
 11 
4.75
 21 
0.25
 0 
LINE
 8 
0
 62 
 7 
 10 
4.75
 20 
0.55
 11 
4.75
 21 
0.25
 0 
LINE
 8 
0
 62 
 7 
 10 
4.806
 20 
0.625
 11 
4.825
 21 
0.625
 0 
LINE
 8 
0
 62 
 7 
 10 
4.825
 20 
0.625
 11 
4.825
 21 
0.593
 0 
LINE
 8 
0
 62 
 7 
 10 
4.825
 20 
0.593
 11 
4.819
 21 
0.587
 0 
LINE
 8 
0
 62 
 7 
 10 
4.819
 20 
0.587
 11 
4.806
 21 
0.587
 0 
LINE
 8 
0
 62 
 7 
 10 
4.806
 20 
0.587
 11 
4.8
 21 
0.593
 0 
LINE
 8 
0
 62 
 7 
 10 
4.863
 20 
0.612
 11 
4.857
 21 
0.606
 0 
LINE
 8 
0
 62 
 7 
 10 
4.857
 20 
0.606
 11 
4.844
 21 
0.606
 0 
LINE
 8 
0
 62 
 7 
 10 
4.844
 20 
0.606
 11 
4.838
 21 
0.612
 0 
LINE
 8 
0
 62 
 7 
 10 
4.838
 20 
0.612
 11 
4.838
 21 
0.619
 0 
LINE
 8 
0
 62 
 7 
 10 
4.838
 20 
0.619
 11 
4.844
 21 
0.625
 0 
LINE
 8 
0
 62 
 7 
 10 
4.844
 20 
0.625
 11 
4.857
 21 
0.625
 0 
LINE
 8 
0
 62 
 7 
 10 
4.857
 20 
0.625
 11 
4.863
 21 
0.619
 0 
LINE
 8 
0
 62 
 7 
 10 
4.863
 20 
0.619
 11 
4.863
 21 
0.6
 0 
LINE
 8 
0
 62 
 7 
 10 
4.863
 20 
0.6
 11 
4.851
 21 
0.587
 0 
LINE
 8 
0
 62 
 7 
 10 
4.851
 20 
0.587
 11 
4.844
 21 
0.587
 0 
CIRCLE
 8 
0
 62 
 7 
 10 
5.2
 20 
0.5
 40 
0.018
 0 
CIRCLE
 8 
0
 62 
 7 
 10 
5.3
 20 
0.5
 40 
0.018
 0 
CIRCLE
 8 
0
 62 
 7 
 10 
5.2
 20 
0.4
 40 
0.018
 0 
CIRCLE
 8 
0
 62 
 7 
 10 
5.3
 20 
0.4
 40 
0.018
 0 
CIRCLE
 8 
0
 62 
 7 
 10 
5.2
 20 
0.3
 40 
0.018
 0 
CIRCLE
 8 
0
 62 
 7 
 10 
5.3
 20 
0.3
 40 
0.018
 0 
LINE
 8 
0
 62 
 7 
 10 
5.15
 20 
0.55
 11 
5.35
 21 
0.55
 0 
LINE
 8 
0
 62 
 7 
 10 
5.35
 20 
0.25
 11 
5.35
 21 
0.55
 0 
LINE
 8 
0
 62 
 7 
 10 
5.35
 20 
0.25
 11 
5.15
 21 
0.25
 0 
LINE
 8 
0
 62 
 7 
 10 
5.15
 20 
0.55
 11 
5.15
 21 
0.25
 0 
LINE
 8 
0
 62 
 7 
 10 
5.206
 20 
0.625
 11 
5.225
 21 
0.625
 0 
LINE
 8 
0
 62 
 7 
 10 
5.225
 20 
0.625
 11 
5.225
 21 
0.593
 0 
LINE
 8 
0
 62 
 7 
 10 
5.225
 20 
0.593
 11 
5.219
 21 
0.587
 0 
LINE
 8 
0
 62 
 7 
 10 
5.219
 20 
0.587
 11 
5.206
 21 
0.587
 0 
LINE
 8 
0
 62 
 7 
 10 
5.206
 20 
0.587
 11 
5.2
 21 
0.593
 0 
LINE
 8 
0
 62 
 7 
 10 
5.244
 20 
0.619
 11 
5.251
 21 
0.625
 0 
LINE
 8 
0
 62 
 7 
 10 
5.251
 20 
0.625
 11 
5.251
 21 
0.587
 0 
LINE
 8 
0
 62 
 7 
 10 
5.244
 20 
0.587
 11 
5.257
 21 
0.587
 0 
LINE
 8 
0
 62 
 7 
 10 
5.276
 20 
0.593
 11 
5.276
 21 
0.619
 0 
LINE
 8 
0
 62 
 7 
 10 
5.276
 20 
0.619
 11 
5.282
 21 
0.625
 0 
LINE
 8 
0
 62 
 7 
 10 
5.282
 20 
0.625
 11 
5.295
 21 
0.625
 0 
LINE
 8 
0
 62 
 7 
 10 
5.295
 20 
0.625
 11 
5.301
 21 
0.619
 0 
LINE
 8 
0
 62 
 7 
 10 
5.301
 20 
0.619
 11 
5.301
 21 
0.593
 0 
LINE
 8 
0
 62 
 7 
 10 
5.301
 20 
0.593
 11 
5.295
 21 
0.587
 0 
LINE
 8 
0
 62 
 7 
 10 
5.295
 20 
0.587
 11 
5.282
 21 
0.587
 0 
LINE
 8 
0
 62 
 7 
 10 
5.282
 20 
0.587
 11 
5.276
 21 
0.593
 0 
LINE
 8 
0
 62 
 7 
 10 
5.276
 20 
0.593
 11 
5.301
 21 
0.619
 0 
CIRCLE
 8 
0
 62 
 7 
 10 
5.6
 20 
0.5
 40 
0.018
 0 
CIRCLE
 8 
0
 62 
 7 
 10 
5.7
 20 
0.5
 40 
0.018
 0 
CIRCLE
 8 
0
 62 
 7 
 10 
5.6
 20 
0.4
 40 
0.018
 0 
CIRCLE
 8 
0
 62 
 7 
 10 
5.7
 20 
0.4
 40 
0.018
 0 
CIRCLE
 8 
0
 62 
 7 
 10 
5.6
 20 
0.3
 40 
0.018
 0 
CIRCLE
 8 
0
 62 
 7 
 10 
5.7
 20 
0.3
 40 
0.018
 0 
LINE
 8 
0
 62 
 7 
 10 
5.55
 20 
0.55
 11 
5.75
 21 
0.55
 0 
LINE
 8 
0
 62 
 7 
 10 
5.75
 20 
0.25
 11 
5.75
 21 
0.55
 0 
LINE
 8 
0
 62 
 7 
 10 
5.75
 20 
0.25
 11 
5.55
 21 
0.25
 0 
LINE
 8 
0
 62 
 7 
 10 
5.55
 20 
0.55
 11 
5.55
 21 
0.25
 0 
LINE
 8 
0
 62 
 7 
 10 
5.606
 20 
0.625
 11 
5.625
 21 
0.625
 0 
LINE
 8 
0
 62 
 7 
 10 
5.625
 20 
0.625
 11 
5.625
 21 
0.593
 0 
LINE
 8 
0
 62 
 7 
 10 
5.625
 20 
0.593
 11 
5.619
 21 
0.587
 0 
LINE
 8 
0
 62 
 7 
 10 
5.619
 20 
0.587
 11 
5.606
 21 
0.587
 0 
LINE
 8 
0
 62 
 7 
 10 
5.606
 20 
0.587
 11 
5.6
 21 
0.593
 0 
LINE
 8 
0
 62 
 7 
 10 
5.644
 20 
0.619
 11 
5.651
 21 
0.625
 0 
LINE
 8 
0
 62 
 7 
 10 
5.651
 20 
0.625
 11 
5.651
 21 
0.587
 0 
LINE
 8 
0
 62 
 7 
 10 
5.644
 20 
0.587
 11 
5.657
 21 
0.587
 0 
LINE
 8 
0
 62 
 7 
 10 
5.682
 20 
0.619
 11 
5.689
 21 
0.625
 0 
LINE
 8 
0
 62 
 7 
 10 
5.689
 20 
0.625
 11 
5.689
 21 
0.587
 0 
LINE
 8 
0
 62 
 7 
 10 
5.682
 20 
0.587
 11 
5.695
 21 
0.587
 0 
LINE
 8 
0
 62 
 7 
 10 
1.324
 20 
1.37
 11 
1.293
 21 
1.37
 0 
LINE
 8 
0
 62 
 7 
 10 
1.293
 20 
1.37
 11 
1.293
 21 
1.03
 0 
LINE
 8 
0
 62 
 7 
 10 
1.293
 20 
1.03
 11 
1.381
 21 
1.03
 0 
LINE
 8 
0
 62 
 7 
 10 
1.381
 20 
1.03
 11 
1.381
 21 
1.37
 0 
LINE
 8 
0
 62 
 7 
 10 
1.381
 20 
1.37
 11 
1.35
 21 
1.37
 0 
LINE
 8 
0
 62 
 7 
 10 
1.35
 20 
1.37
 11 
1.35
 21 
1.344
 0 
LINE
 8 
0
 62 
 7 
 10 
1.35
 20 
1.344
 11 
1.324
 21 
1.344
 0 
LINE
 8 
0
 62 
 7 
 10 
1.324
 20 
1.344
 11 
1.324
 21 
1.37
 0 
LINE
 8 
0
 62 
 7 
 10 
1.3
 20 
1.425
 11 
1.3
 21 
1.393
 0 
LINE
 8 
0
 62 
 7 
 10 
1.3
 20 
1.393
 11 
1.306
 21 
1.387
 0 
LINE
 8 
0
 62 
 7 
 10 
1.306
 20 
1.387
 11 
1.319
 21 
1.387
 0 
LINE
 8 
0
 62 
 7 
 10 
1.319
 20 
1.387
 11 
1.325
 21 
1.393
 0 
LINE
 8 
0
 62 
 7 
 10 
1.325
 20 
1.393
 11 
1.325
 21 
1.425
 0 
LINE
 8 
0
 62 
 7 
 10 
1.357
 20 
1.425
 11 
1.351
 21 
1.425
 0 
LINE
 8 
0
 62 
 7 
 10 
1.351
 20 
1.425
 11 
1.338
 21 
1.412
 0 
LINE
 8 
0
 62 
 7 
 10 
1.338
 20 
1.412
 11 
1.338
 21 
1.393
 0 
LINE
 8 
0
 62 
 7 
 10 
1.338
 20 
1.393
 11 
1.344
 21 
1.387
 0 
LINE
 8 
0
 62 
 7 
 10 
1.344
 20 
1.387
 11 
1.357
 21 
1.387
 0 
LINE
 8 
0
 62 
 7 
 10 
1.357
 20 
1.387
 11 
1.363
 21 
1.393
 0 
LINE
 8 
0
 62 
 7 
 10 
1.363
 20 
1.393
 11 
1.363
 21 
1.4
 0 
LINE
 8 
0
 62 
 7 
 10 
1.363
 20 
1.4
 11 
1.357
 21 
1.406
 0 
LINE
 8 
0
 62 
 7 
 10 
1.357
 20 
1.406
 11 
1.344
 21 
1.406
 0 
LINE
 8 
0
 62 
 7 
 10 
1.344
 20 
1.406
 11 
1.338
 21 
1.4
 0 
LINE
 8 
0
 62 
 7 
 10 
1.324
 20 
0.845
 11 
1.293
 21 
0.845
 0 
LINE
 8 
0
 62 
 7 
 10 
1.293
 20 
0.845
 11 
1.293
 21 
0.505
 0 
LINE
 8 
0
 62 
 7 
 10 
1.293
 20 
0.505
 11 
1.381
 21 
0.505
 0 
LINE
 8 
0
 62 
 7 
 10 
1.381
 20 
0.505
 11 
1.381
 21 
0.845
 0 
LINE
 8 
0
 62 
 7 
 10 
1.381
 20 
0.845
 11 
1.35
 21 
0.845
 0 
LINE
 8 
0
 62 
 7 
 10 
1.35
 20 
0.845
 11 
1.35
 21 
0.819
 0 
LINE
 8 
0
 62 
 7 
 10 
1.35
 20 
0.819
 11 
1.324
 21 
0.819
 0 
LINE
 8 
0
 62 
 7 
 10 
1.324
 20 
0.819
 11 
1.324
 21 
0.845
 0 
LINE
 8 
0
 62 
 7 
 10 
1.3
 20 
0.9
 11 
1.3
 21 
0.868
 0 
LINE
 8 
0
 62 
 7 
 10 
1.3
 20 
0.868
 11 
1.306
 21 
0.862
 0 
LINE
 8 
0
 62 
 7 
 10 
1.306
 20 
0.862
 11 
1.319
 21 
0.862
 0 
LINE
 8 
0
 62 
 7 
 10 
1.319
 20 
0.862
 11 
1.325
 21 
0.868
 0 
LINE
 8 
0
 62 
 7 
 10 
1.325
 20 
0.868
 11 
1.325
 21 
0.9
 0 
LINE
 8 
0
 62 
 7 
 10 
1.338
 20 
0.894
 11 
1.344
 21 
0.9
 0 
LINE
 8 
0
 62 
 7 
 10 
1.344
 20 
0.9
 11 
1.357
 21 
0.9
 0 
LINE
 8 
0
 62 
 7 
 10 
1.357
 20 
0.9
 11 
1.363
 21 
0.894
 0 
LINE
 8 
0
 62 
 7 
 10 
1.363
 20 
0.894
 11 
1.363
 21 
0.887
 0 
LINE
 8 
0
 62 
 7 
 10 
1.363
 20 
0.887
 11 
1.357
 21 
0.881
 0 
LINE
 8 
0
 62 
 7 
 10 
1.357
 20 
0.881
 11 
1.351
 21 
0.881
 0 
LINE
 8 
0
 62 
 7 
 10 
1.357
 20 
0.881
 11 
1.363
 21 
0.875
 0 
LINE
 8 
0
 62 
 7 
 10 
1.363
 20 
0.875
 11 
1.363
 21 
0.868
 0 
LINE
 8 
0
 62 
 7 
 10 
1.363
 20 
0.868
 11 
1.357
 21 
0.862
 0 
LINE
 8 
0
 62 
 7 
 10 
1.357
 20 
0.862
 11 
1.344
 21 
0.862
 0 
LINE
 8 
0
 62 
 7 
 10 
1.344
 20 
0.862
 11 
1.338
 21 
0.868
 0 
LINE
 8 
0
 62 
 7 
 10 
1.824
 20 
1.37
 11 
1.793
 21 
1.37
 0 
LINE
 8 
0
 62 
 7 
 10 
1.793
 20 
1.37
 11 
1.793
 21 
1.03
 0 
LINE
 8 
0
 62 
 7 
 10 
1.793
 20 
1.03
 11 
1.881
 21 
1.03
 0 
LINE
 8 
0
 62 
 7 
 10 
1.881
 20 
1.03
 11 
1.881
 21 
1.37
 0 
LINE
 8 
0
 62 
 7 
 10 
1.881
 20 
1.37
 11 
1.85
 21 
1.37
 0 
LINE
 8 
0
 62 
 7 
 10 
1.85
 20 
1.37
 11 
1.85
 21 
1.344
 0 
LINE
 8 
0
 62 
 7 
 10 
1.85
 20 
1.344
 11 
1.824
 21 
1.344
 0 
LINE
 8 
0
 62 
 7 
 10 
1.824
 20 
1.344
 11 
1.824
 21 
1.37
 0 
LINE
 8 
0
 62 
 7 
 10 
1.8
 20 
1.425
 11 
1.8
 21 
1.393
 0 
LINE
 8 
0
 62 
 7 
 10 
1.8
 20 
1.393
 11 
1.806
 21 
1.387
 0 
LINE
 8 
0
 62 
 7 
 10 
1.806
 20 
1.387
 11 
1.819
 21 
1.387
 0 
LINE
 8 
0
 62 
 7 
 10 
1.819
 20 
1.387
 11 
1.825
 21 
1.393
 0 
LINE
 8 
0
 62 
 7 
 10 
1.825
 20 
1.393
 11 
1.825
 21 
1.425
 0 
LINE
 8 
0
 62 
 7 
 10 
1.863
 20 
1.425
 11 
1.838
 21 
1.425
 0 
LINE
 8 
0
 62 
 7 
 10 
1.838
 20 
1.425
 11 
1.838
 21 
1.412
 0 
LINE
 8 
0
 62 
 7 
 10 
1.838
 20 
1.412
 11 
1.857
 21 
1.412
 0 
LINE
 8 
0
 62 
 7 
 10 
1.857
 20 
1.412
 11 
1.863
 21 
1.406
 0 
LINE
 8 
0
 62 
 7 
 10 
1.863
 20 
1.406
 11 
1.863
 21 
1.393
 0 
LINE
 8 
0
 62 
 7 
 10 
1.863
 20 
1.393
 11 
1.857
 21 
1.387
 0 
LINE
 8 
0
 62 
 7 
 10 
1.857
 20 
1.387
 11 
1.844
 21 
1.387
 0 
LINE
 8 
0
 62 
 7 
 10 
1.844
 20 
1.387
 11 
1.838
 21 
1.393
 0 
LINE
 8 
0
 62 
 7 
 10 
1.824
 20 
0.845
 11 
1.793
 21 
0.845
 0 
LINE
 8 
0
 62 
 7 
 10 
1.793
 20 
0.845
 11 
1.793
 21 
0.505
 0 
LINE
 8 
0
 62 
 7 
 10 
1.793
 20 
0.505
 11 
1.881
 21 
0.505
 0 
LINE
 8 
0
 62 
 7 
 10 
1.881
 20 
0.505
 11 
1.881
 21 
0.845
 0 
LINE
 8 
0
 62 
 7 
 10 
1.881
 20 
0.845
 11 
1.85
 21 
0.845
 0 
LINE
 8 
0
 62 
 7 
 10 
1.85
 20 
0.845
 11 
1.85
 21 
0.819
 0 
LINE
 8 
0
 62 
 7 
 10 
1.85
 20 
0.819
 11 
1.824
 21 
0.819
 0 
LINE
 8 
0
 62 
 7 
 10 
1.824
 20 
0.819
 11 
1.824
 21 
0.845
 0 
LINE
 8 
0
 62 
 7 
 10 
1.8
 20 
0.9
 11 
1.8
 21 
0.868
 0 
LINE
 8 
0
 62 
 7 
 10 
1.8
 20 
0.868
 11 
1.806
 21 
0.862
 0 
LINE
 8 
0
 62 
 7 
 10 
1.806
 20 
0.862
 11 
1.819
 21 
0.862
 0 
LINE
 8 
0
 62 
 7 
 10 
1.819
 20 
0.862
 11 
1.825
 21 
0.868
 0 
LINE
 8 
0
 62 
 7 
 10 
1.825
 20 
0.868
 11 
1.825
 21 
0.9
 0 
LINE
 8 
0
 62 
 7 
 10 
1.863
 20 
0.875
 11 
1.838
 21 
0.875
 0 
LINE
 8 
0
 62 
 7 
 10 
1.838
 20 
0.875
 11 
1.838
 21 
0.881
 0 
LINE
 8 
0
 62 
 7 
 10 
1.838
 20 
0.881
 11 
1.857
 21 
0.9
 0 
LINE
 8 
0
 62 
 7 
 10 
1.857
 20 
0.9
 11 
1.857
 21 
0.862
 0 
LINE
 8 
0
 62 
 7 
 10 
1.044
 20 
1.435
 11 
1.0
 21 
1.435
 0 
LINE
 8 
0
 62 
 7 
 10 
1.0
 20 
1.435
 11 
1.0
 21 
1.365
 0 
LINE
 8 
0
 62 
 7 
 10 
1.0
 20 
1.365
 11 
1.044
 21 
1.365
 0 
LINE
 8 
0
 62 
 7 
 10 
1.08
 20 
1.435
 11 
1.124
 21 
1.435
 0 
LINE
 8 
0
 62 
 7 
 10 
1.124
 20 
1.435
 11 
1.124
 21 
1.365
 0 
LINE
 8 
0
 62 
 7 
 10 
1.124
 20 
1.365
 11 
1.08
 21 
1.365
 0 
LINE
 8 
0
 62 
 7 
 10 
1.059
 20 
1.494
 11 
1.053
 21 
1.5
 0 
LINE
 8 
0
 62 
 7 
 10 
1.053
 20 
1.5
 11 
1.04
 21 
1.5
 0 
LINE
 8 
0
 62 
 7 
 10 
1.04
 20 
1.5
 11 
1.034
 21 
1.494
 0 
LINE
 8 
0
 62 
 7 
 10 
1.034
 20 
1.494
 11 
1.034
 21 
1.468
 0 
LINE
 8 
0
 62 
 7 
 10 
1.034
 20 
1.468
 11 
1.04
 21 
1.462
 0 
LINE
 8 
0
 62 
 7 
 10 
1.04
 20 
1.462
 11 
1.053
 21 
1.462
 0 
LINE
 8 
0
 62 
 7 
 10 
1.053
 20 
1.462
 11 
1.059
 21 
1.468
 0 
LINE
 8 
0
 62 
 7 
 10 
1.072
 20 
1.494
 11 
1.078
 21 
1.5
 0 
LINE
 8 
0
 62 
 7 
 10 
1.078
 20 
1.5
 11 
1.091
 21 
1.5
 0 
LINE
 8 
0
 62 
 7 
 10 
1.091
 20 
1.5
 11 
1.097
 21 
1.494
 0 
LINE
 8 
0
 62 
 7 
 10 
1.097
 20 
1.494
 11 
1.097
 21 
1.487
 0 
LINE
 8 
0
 62 
 7 
 10 
1.097
 20 
1.487
 11 
1.091
 21 
1.481
 0 
LINE
 8 
0
 62 
 7 
 10 
1.091
 20 
1.481
 11 
1.085
 21 
1.481
 0 
LINE
 8 
0
 62 
 7 
 10 
1.091
 20 
1.481
 11 
1.097
 21 
1.475
 0 
LINE
 8 
0
 62 
 7 
 10 
1.097
 20 
1.475
 11 
1.097
 21 
1.468
 0 
LINE
 8 
0
 62 
 7 
 10 
1.097
 20 
1.468
 11 
1.091
 21 
1.462
 0 
LINE
 8 
0
 62 
 7 
 10 
1.091
 20 
1.462
 11 
1.078
 21 
1.462
 0 
LINE
 8 
0
 62 
 7 
 10 
1.078
 20 
1.462
 11 
1.072
 21 
1.468
 0 
LINE
 8 
0
 62 
 7 
 10 
1.046
 20 
0.935
 11 
1.002
 21 
0.935
 0 
LINE
 8 
0
 62 
 7 
 10 
1.002
 20 
0.935
 11 
1.002
 21 
0.865
 0 
LINE
 8 
0
 62 
 7 
 10 
1.002
 20 
0.865
 11 
1.046
 21 
0.865
 0 
LINE
 8 
0
 62 
 7 
 10 
1.082
 20 
0.935
 11 
1.126
 21 
0.935
 0 
LINE
 8 
0
 62 
 7 
 10 
1.126
 20 
0.935
 11 
1.126
 21 
0.865
 0 
LINE
 8 
0
 62 
 7 
 10 
1.126
 20 
0.865
 11 
1.082
 21 
0.865
 0 
LINE
 8 
0
 62 
 7 
 10 
1.061
 20 
0.994
 11 
1.055
 21 
1.0
 0 
LINE
 8 
0
 62 
 7 
 10 
1.055
 20 
1.0
 11 
1.042
 21 
1.0
 0 
LINE
 8 
0
 62 
 7 
 10 
1.042
 20 
1.0
 11 
1.036
 21 
0.994
 0 
LINE
 8 
0
 62 
 7 
 10 
1.036
 20 
0.994
 11 
1.036
 21 
0.968
 0 
LINE
 8 
0
 62 
 7 
 10 
1.036
 20 
0.968
 11 
1.042
 21 
0.962
 0 
LINE
 8 
0
 62 
 7 
 10 
1.042
 20 
0.962
 11 
1.055
 21 
0.962
 0 
LINE
 8 
0
 62 
 7 
 10 
1.055
 20 
0.962
 11 
1.061
 21 
0.968
 0 
LINE
 8 
0
 62 
 7 
 10 
1.074
 20 
0.994
 11 
1.08
 21 
1.0
 0 
LINE
 8 
0
 62 
 7 
 10 
1.08
 20 
1.0
 11 
1.093
 21 
1.0
 0 
LINE
 8 
0
 62 
 7 
 10 
1.093
 20 
1.0
 11 
1.099
 21 
0.994
 0 
LINE
 8 
0
 62 
 7 
 10 
1.099
 20 
0.994
 11 
1.099
 21 
0.987
 0 
LINE
 8 
0
 62 
 7 
 10 
1.099
 20 
0.987
 11 
1.093
 21 
0.981
 0 
LINE
 8 
0
 62 
 7 
 10 
1.093
 20 
0.981
 11 
1.08
 21 
0.981
 0 
LINE
 8 
0
 62 
 7 
 10 
1.08
 20 
0.981
 11 
1.074
 21 
0.975
 0 
LINE
 8 
0
 62 
 7 
 10 
1.074
 20 
0.975
 11 
1.074
 21 
0.962
 0 
LINE
 8 
0
 62 
 7 
 10 
1.074
 20 
0.962
 11 
1.099
 21 
0.962
 0 
LINE
 8 
0
 62 
 7 
 10 
1.547
 20 
0.91
 11 
1.503
 21 
0.91
 0 
LINE
 8 
0
 62 
 7 
 10 
1.503
 20 
0.91
 11 
1.503
 21 
0.84
 0 
LINE
 8 
0
 62 
 7 
 10 
1.503
 20 
0.84
 11 
1.547
 21 
0.84
 0 
LINE
 8 
0
 62 
 7 
 10 
1.583
 20 
0.91
 11 
1.627
 21 
0.91
 0 
LINE
 8 
0
 62 
 7 
 10 
1.627
 20 
0.91
 11 
1.627
 21 
0.84
 0 
LINE
 8 
0
 62 
 7 
 10 
1.627
 20 
0.84
 11 
1.583
 21 
0.84
 0 
LINE
 8 
0
 62 
 7 
 10 
1.562
 20 
0.969
 11 
1.556
 21 
0.975
 0 
LINE
 8 
0
 62 
 7 
 10 
1.556
 20 
0.975
 11 
1.543
 21 
0.975
 0 
LINE
 8 
0
 62 
 7 
 10 
1.543
 20 
0.975
 11 
1.537
 21 
0.969
 0 
LINE
 8 
0
 62 
 7 
 10 
1.537
 20 
0.969
 11 
1.537
 21 
0.943
 0 
LINE
 8 
0
 62 
 7 
 10 
1.537
 20 
0.943
 11 
1.543
 21 
0.937
 0 
LINE
 8 
0
 62 
 7 
 10 
1.543
 20 
0.937
 11 
1.556
 21 
0.937
 0 
LINE
 8 
0
 62 
 7 
 10 
1.556
 20 
0.937
 11 
1.562
 21 
0.943
 0 
LINE
 8 
0
 62 
 7 
 10 
1.6
 20 
0.95
 11 
1.575
 21 
0.95
 0 
LINE
 8 
0
 62 
 7 
 10 
1.575
 20 
0.95
 11 
1.575
 21 
0.956
 0 
LINE
 8 
0
 62 
 7 
 10 
1.575
 20 
0.956
 11 
1.594
 21 
0.975
 0 
LINE
 8 
0
 62 
 7 
 10 
1.594
 20 
0.975
 11 
1.594
 21 
0.937
 0 
LINE
 8 
0
 62 
 7 
 10 
1.543
 20 
1.435
 11 
1.499
 21 
1.435
 0 
LINE
 8 
0
 62 
 7 
 10 
1.499
 20 
1.435
 11 
1.499
 21 
1.365
 0 
LINE
 8 
0
 62 
 7 
 10 
1.499
 20 
1.365
 11 
1.543
 21 
1.365
 0 
LINE
 8 
0
 62 
 7 
 10 
1.579
 20 
1.435
 11 
1.623
 21 
1.435
 0 
LINE
 8 
0
 62 
 7 
 10 
1.623
 20 
1.435
 11 
1.623
 21 
1.365
 0 
LINE
 8 
0
 62 
 7 
 10 
1.623
 20 
1.365
 11 
1.579
 21 
1.365
 0 
LINE
 8 
0
 62 
 7 
 10 
1.558
 20 
1.494
 11 
1.552
 21 
1.5
 0 
LINE
 8 
0
 62 
 7 
 10 
1.552
 20 
1.5
 11 
1.539
 21 
1.5
 0 
LINE
 8 
0
 62 
 7 
 10 
1.539
 20 
1.5
 11 
1.533
 21 
1.494
 0 
LINE
 8 
0
 62 
 7 
 10 
1.533
 20 
1.494
 11 
1.533
 21 
1.468
 0 
LINE
 8 
0
 62 
 7 
 10 
1.533
 20 
1.468
 11 
1.539
 21 
1.462
 0 
LINE
 8 
0
 62 
 7 
 10 
1.539
 20 
1.462
 11 
1.552
 21 
1.462
 0 
LINE
 8 
0
 62 
 7 
 10 
1.552
 20 
1.462
 11 
1.558
 21 
1.468
 0 
LINE
 8 
0
 62 
 7 
 10 
1.571
 20 
1.494
 11 
1.571
 21 
1.5
 0 
LINE
 8 
0
 62 
 7 
 10 
1.571
 20 
1.5
 11 
1.596
 21 
1.5
 0 
LINE
 8 
0
 62 
 7 
 10 
1.596
 20 
1.5
 11 
1.596
 21 
1.494
 0 
LINE
 8 
0
 62 
 7 
 10 
1.596
 20 
1.494
 11 
1.577
 21 
1.475
 0 
LINE
 8 
0
 62 
 7 
 10 
1.577
 20 
1.475
 11 
1.577
 21 
1.462
 0 
LINE
 8 
0
 62 
 7 
 10 
2.044
 20 
1.435
 11 
2.0
 21 
1.435
 0 
LINE
 8 
0
 62 
 7 
 10 
2.0
 20 
1.435
 11 
2.0
 21 
1.365
 0 
LINE
 8 
0
 62 
 7 
 10 
2.0
 20 
1.365
 11 
2.044
 21 
1.365
 0 
LINE
 8 
0
 62 
 7 
 10 
2.08
 20 
1.435
 11 
2.124
 21 
1.435
 0 
LINE
 8 
0
 62 
 7 
 10 
2.124
 20 
1.435
 11 
2.124
 21 
1.365
 0 
LINE
 8 
0
 62 
 7 
 10 
2.124
 20 
1.365
 11 
2.08
 21 
1.365
 0 
LINE
 8 
0
 62 
 7 
 10 
2.059
 20 
1.494
 11 
2.053
 21 
1.5
 0 
LINE
 8 
0
 62 
 7 
 10 
2.053
 20 
1.5
 11 
2.04
 21 
1.5
 0 
LINE
 8 
0
 62 
 7 
 10 
2.04
 20 
1.5
 11 
2.034
 21 
1.494
 0 
LINE
 8 
0
 62 
 7 
 10 
2.034
 20 
1.494
 11 
2.034
 21 
1.468
 0 
LINE
 8 
0
 62 
 7 
 10 
2.034
 20 
1.468
 11 
2.04
 21 
1.462
 0 
LINE
 8 
0
 62 
 7 
 10 
2.04
 20 
1.462
 11 
2.053
 21 
1.462
 0 
LINE
 8 
0
 62 
 7 
 10 
2.053
 20 
1.462
 11 
2.059
 21 
1.468
 0 
LINE
 8 
0
 62 
 7 
 10 
2.091
 20 
1.5
 11 
2.085
 21 
1.5
 0 
LINE
 8 
0
 62 
 7 
 10 
2.085
 20 
1.5
 11 
2.072
 21 
1.487
 0 
LINE
 8 
0
 62 
 7 
 10 
2.072
 20 
1.487
 11 
2.072
 21 
1.468
 0 
LINE
 8 
0
 62 
 7 
 10 
2.072
 20 
1.468
 11 
2.078
 21 
1.462
 0 
LINE
 8 
0
 62 
 7 
 10 
2.078
 20 
1.462
 11 
2.091
 21 
1.462
 0 
LINE
 8 
0
 62 
 7 
 10 
2.091
 20 
1.462
 11 
2.097
 21 
1.468
 0 
LINE
 8 
0
 62 
 7 
 10 
2.097
 20 
1.468
 11 
2.097
 21 
1.475
 0 
LINE
 8 
0
 62 
 7 
 10 
2.097
 20 
1.475
 11 
2.091
 21 
1.481
 0 
LINE
 8 
0
 62 
 7 
 10 
2.091
 20 
1.481
 11 
2.078
 21 
1.481
 0 
LINE
 8 
0
 62 
 7 
 10 
2.078
 20 
1.481
 11 
2.072
 21 
1.475
 0 
LINE
 8 
0
 62 
 7 
 10 
2.047
 20 
0.91
 11 
2.003
 21 
0.91
 0 
LINE
 8 
0
 62 
 7 
 10 
2.003
 20 
0.91
 11 
2.003
 21 
0.84
 0 
LINE
 8 
0
 62 
 7 
 10 
2.003
 20 
0.84
 11 
2.047
 21 
0.84
 0 
LINE
 8 
0
 62 
 7 
 10 
2.083
 20 
0.91
 11 
2.127
 21 
0.91
 0 
LINE
 8 
0
 62 
 7 
 10 
2.127
 20 
0.91
 11 
2.127
 21 
0.84
 0 
LINE
 8 
0
 62 
 7 
 10 
2.127
 20 
0.84
 11 
2.083
 21 
0.84
 0 
LINE
 8 
0
 62 
 7 
 10 
2.062
 20 
0.969
 11 
2.056
 21 
0.975
 0 
LINE
 8 
0
 62 
 7 
 10 
2.056
 20 
0.975
 11 
2.043
 21 
0.975
 0 
LINE
 8 
0
 62 
 7 
 10 
2.043
 20 
0.975
 11 
2.037
 21 
0.969
 0 
LINE
 8 
0
 62 
 7 
 10 
2.037
 20 
0.969
 11 
2.037
 21 
0.943
 0 
LINE
 8 
0
 62 
 7 
 10 
2.037
 20 
0.943
 11 
2.043
 21 
0.937
 0 
LINE
 8 
0
 62 
 7 
 10 
2.043
 20 
0.937
 11 
2.056
 21 
0.937
 0 
LINE
 8 
0
 62 
 7 
 10 
2.056
 20 
0.937
 11 
2.062
 21 
0.943
 0 
LINE
 8 
0
 62 
 7 
 10 
2.1
 20 
0.975
 11 
2.075
 21 
0.975
 0 
LINE
 8 
0
 62 
 7 
 10 
2.075
 20 
0.975
 11 
2.075
 21 
0.962
 0 
LINE
 8 
0
 62 
 7 
 10 
2.075
 20 
0.962
 11 
2.094
 21 
0.962
 0 
LINE
 8 
0
 62 
 7 
 10 
2.094
 20 
0.962
 11 
2.1
 21 
0.956
 0 
LINE
 8 
0
 62 
 7 
 10 
2.1
 20 
0.956
 11 
2.1
 21 
0.943
 0 
LINE
 8 
0
 62 
 7 
 10 
2.1
 20 
0.943
 11 
2.094
 21 
0.937
 0 
LINE
 8 
0
 62 
 7 
 10 
2.094
 20 
0.937
 11 
2.081
 21 
0.937
 0 
LINE
 8 
0
 62 
 7 
 10 
2.081
 20 
0.937
 11 
2.075
 21 
0.943
 0 
LINE
 8 
0
 62 
 7 
 10 
0.81
 20 
0.41
 11 
0.766
 21 
0.41
 0 
LINE
 8 
0
 62 
 7 
 10 
0.766
 20 
0.41
 11 
0.766
 21 
0.34
 0 
LINE
 8 
0
 62 
 7 
 10 
0.766
 20 
0.34
 11 
0.81
 21 
0.34
 0 
LINE
 8 
0
 62 
 7 
 10 
0.846
 20 
0.41
 11 
0.89
 21 
0.41
 0 
LINE
 8 
0
 62 
 7 
 10 
0.89
 20 
0.41
 11 
0.89
 21 
0.34
 0 
LINE
 8 
0
 62 
 7 
 10 
0.89
 20 
0.34
 11 
0.846
 21 
0.34
 0 
LINE
 8 
0
 62 
 7 
 10 
0.825
 20 
0.319
 11 
0.819
 21 
0.325
 0 
LINE
 8 
0
 62 
 7 
 10 
0.819
 20 
0.325
 11 
0.806
 21 
0.325
 0 
LINE
 8 
0
 62 
 7 
 10 
0.806
 20 
0.325
 11 
0.8
 21 
0.319
 0 
LINE
 8 
0
 62 
 7 
 10 
0.8
 20 
0.319
 11 
0.8
 21 
0.293
 0 
LINE
 8 
0
 62 
 7 
 10 
0.8
 20 
0.293
 11 
0.806
 21 
0.287
 0 
LINE
 8 
0
 62 
 7 
 10 
0.806
 20 
0.287
 11 
0.819
 21 
0.287
 0 
LINE
 8 
0
 62 
 7 
 10 
0.819
 20 
0.287
 11 
0.825
 21 
0.293
 0 
LINE
 8 
0
 62 
 7 
 10 
0.844
 20 
0.306
 11 
0.838
 21 
0.312
 0 
LINE
 8 
0
 62 
 7 
 10 
0.838
 20 
0.312
 11 
0.838
 21 
0.319
 0 
LINE
 8 
0
 62 
 7 
 10 
0.838
 20 
0.319
 11 
0.844
 21 
0.325
 0 
LINE
 8 
0
 62 
 7 
 10 
0.844
 20 
0.325
 11 
0.857
 21 
0.325
 0 
LINE
 8 
0
 62 
 7 
 10 
0.857
 20 
0.325
 11 
0.863
 21 
0.319
 0 
LINE
 8 
0
 62 
 7 
 10 
0.863
 20 
0.319
 11 
0.863
 21 
0.312
 0 
LINE
 8 
0
 62 
 7 
 10 
0.863
 20 
0.312
 11 
0.857
 21 
0.306
 0 
LINE
 8 
0
 62 
 7 
 10 
0.857
 20 
0.306
 11 
0.844
 21 
0.306
 0 
LINE
 8 
0
 62 
 7 
 10 
0.844
 20 
0.306
 11 
0.838
 21 
0.3
 0 
LINE
 8 
0
 62 
 7 
 10 
0.838
 20 
0.3
 11 
0.838
 21 
0.293
 0 
LINE
 8 
0
 62 
 7 
 10 
0.838
 20 
0.293
 11 
0.844
 21 
0.287
 0 
LINE
 8 
0
 62 
 7 
 10 
0.844
 20 
0.287
 11 
0.857
 21 
0.287
 0 
LINE
 8 
0
 62 
 7 
 10 
0.857
 20 
0.287
 11 
0.863
 21 
0.293
 0 
LINE
 8 
0
 62 
 7 
 10 
0.863
 20 
0.293
 11 
0.863
 21 
0.3
 0 
LINE
 8 
0
 62 
 7 
 10 
0.863
 20 
0.3
 11 
0.857
 21 
0.306
 0 
LINE
 8 
0
 62 
 7 
 10 
2.56
 20 
0.59
 11 
2.56
 21 
0.634
 0 
LINE
 8 
0
 62 
 7 
 10 
2.56
 20 
0.634
 11 
2.49
 21 
0.634
 0 
LINE
 8 
0
 62 
 7 
 10 
2.49
 20 
0.634
 11 
2.49
 21 
0.59
 0 
LINE
 8 
0
 62 
 7 
 10 
2.56
 20 
0.554
 11 
2.56
 21 
0.51
 0 
LINE
 8 
0
 62 
 7 
 10 
2.56
 20 
0.51
 11 
2.49
 21 
0.51
 0 
LINE
 8 
0
 62 
 7 
 10 
2.49
 20 
0.51
 11 
2.49
 21 
0.554
 0 
LINE
 8 
0
 62 
 7 
 10 
2.575
 20 
0.694
 11 
2.569
 21 
0.7
 0 
LINE
 8 
0
 62 
 7 
 10 
2.569
 20 
0.7
 11 
2.556
 21 
0.7
 0 
LINE
 8 
0
 62 
 7 
 10 
2.556
 20 
0.7
 11 
2.55
 21 
0.694
 0 
LINE
 8 
0
 62 
 7 
 10 
2.55
 20 
0.694
 11 
2.55
 21 
0.668
 0 
LINE
 8 
0
 62 
 7 
 10 
2.55
 20 
0.668
 11 
2.556
 21 
0.662
 0 
LINE
 8 
0
 62 
 7 
 10 
2.556
 20 
0.662
 11 
2.569
 21 
0.662
 0 
LINE
 8 
0
 62 
 7 
 10 
2.569
 20 
0.662
 11 
2.575
 21 
0.668
 0 
LINE
 8 
0
 62 
 7 
 10 
2.613
 20 
0.687
 11 
2.607
 21 
0.681
 0 
LINE
 8 
0
 62 
 7 
 10 
2.607
 20 
0.681
 11 
2.594
 21 
0.681
 0 
LINE
 8 
0
 62 
 7 
 10 
2.594
 20 
0.681
 11 
2.588
 21 
0.687
 0 
LINE
 8 
0
 62 
 7 
 10 
2.588
 20 
0.687
 11 
2.588
 21 
0.694
 0 
LINE
 8 
0
 62 
 7 
 10 
2.588
 20 
0.694
 11 
2.594
 21 
0.7
 0 
LINE
 8 
0
 62 
 7 
 10 
2.594
 20 
0.7
 11 
2.607
 21 
0.7
 0 
LINE
 8 
0
 62 
 7 
 10 
2.607
 20 
0.7
 11 
2.613
 21 
0.694
 0 
LINE
 8 
0
 62 
 7 
 10 
2.613
 20 
0.694
 11 
2.613
 21 
0.675
 0 
LINE
 8 
0
 62 
 7 
 10 
2.613
 20 
0.675
 11 
2.601
 21 
0.662
 0 
LINE
 8 
0
 62 
 7 
 10 
2.601
 20 
0.662
 11 
2.594
 21 
0.662
 0 
LINE
 8 
0
 62 
 7 
 10 
2.56
 20 
0.94
 11 
2.56
 21 
0.984
 0 
LINE
 8 
0
 62 
 7 
 10 
2.56
 20 
0.984
 11 
2.49
 21 
0.984
 0 
LINE
 8 
0
 62 
 7 
 10 
2.49
 20 
0.984
 11 
2.49
 21 
0.94
 0 
LINE
 8 
0
 62 
 7 
 10 
2.56
 20 
0.904
 11 
2.56
 21 
0.86
 0 
LINE
 8 
0
 62 
 7 
 10 
2.56
 20 
0.86
 11 
2.49
 21 
0.86
 0 
LINE
 8 
0
 62 
 7 
 10 
2.49
 20 
0.86
 11 
2.49
 21 
0.904
 0 
LINE
 8 
0
 62 
 7 
 10 
2.575
 20 
1.044
 11 
2.569
 21 
1.05
 0 
LINE
 8 
0
 62 
 7 
 10 
2.569
 20 
1.05
 11 
2.556
 21 
1.05
 0 
LINE
 8 
0
 62 
 7 
 10 
2.556
 20 
1.05
 11 
2.55
 21 
1.044
 0 
LINE
 8 
0
 62 
 7 
 10 
2.55
 20 
1.044
 11 
2.55
 21 
1.018
 0 
LINE
 8 
0
 62 
 7 
 10 
2.55
 20 
1.018
 11 
2.556
 21 
1.012
 0 
LINE
 8 
0
 62 
 7 
 10 
2.556
 20 
1.012
 11 
2.569
 21 
1.012
 0 
LINE
 8 
0
 62 
 7 
 10 
2.569
 20 
1.012
 11 
2.575
 21 
1.018
 0 
LINE
 8 
0
 62 
 7 
 10 
2.594
 20 
1.044
 11 
2.601
 21 
1.05
 0 
LINE
 8 
0
 62 
 7 
 10 
2.601
 20 
1.05
 11 
2.601
 21 
1.012
 0 
LINE
 8 
0
 62 
 7 
 10 
2.594
 20 
1.012
 11 
2.607
 21 
1.012
 0 
LINE
 8 
0
 62 
 7 
 10 
2.626
 20 
1.018
 11 
2.626
 21 
1.044
 0 
LINE
 8 
0
 62 
 7 
 10 
2.626
 20 
1.044
 11 
2.632
 21 
1.05
 0 
LINE
 8 
0
 62 
 7 
 10 
2.632
 20 
1.05
 11 
2.645
 21 
1.05
 0 
LINE
 8 
0
 62 
 7 
 10 
2.645
 20 
1.05
 11 
2.651
 21 
1.044
 0 
LINE
 8 
0
 62 
 7 
 10 
2.651
 20 
1.044
 11 
2.651
 21 
1.018
 0 
LINE
 8 
0
 62 
 7 
 10 
2.651
 20 
1.018
 11 
2.645
 21 
1.012
 0 
LINE
 8 
0
 62 
 7 
 10 
2.645
 20 
1.012
 11 
2.632
 21 
1.012
 0 
LINE
 8 
0
 62 
 7 
 10 
2.632
 20 
1.012
 11 
2.626
 21 
1.018
 0 
LINE
 8 
0
 62 
 7 
 10 
2.626
 20 
1.018
 11 
2.651
 21 
1.044
 0 
LINE
 8 
0
 62 
 7 
 10 
2.56
 20 
1.265
 11 
2.56
 21 
1.309
 0 
LINE
 8 
0
 62 
 7 
 10 
2.56
 20 
1.309
 11 
2.49
 21 
1.309
 0 
LINE
 8 
0
 62 
 7 
 10 
2.49
 20 
1.309
 11 
2.49
 21 
1.265
 0 
LINE
 8 
0
 62 
 7 
 10 
2.56
 20 
1.229
 11 
2.56
 21 
1.185
 0 
LINE
 8 
0
 62 
 7 
 10 
2.56
 20 
1.185
 11 
2.49
 21 
1.185
 0 
LINE
 8 
0
 62 
 7 
 10 
2.49
 20 
1.185
 11 
2.49
 21 
1.229
 0 
LINE
 8 
0
 62 
 7 
 10 
2.575
 20 
1.369
 11 
2.569
 21 
1.375
 0 
LINE
 8 
0
 62 
 7 
 10 
2.569
 20 
1.375
 11 
2.556
 21 
1.375
 0 
LINE
 8 
0
 62 
 7 
 10 
2.556
 20 
1.375
 11 
2.55
 21 
1.369
 0 
LINE
 8 
0
 62 
 7 
 10 
2.55
 20 
1.369
 11 
2.55
 21 
1.343
 0 
LINE
 8 
0
 62 
 7 
 10 
2.55
 20 
1.343
 11 
2.556
 21 
1.337
 0 
LINE
 8 
0
 62 
 7 
 10 
2.556
 20 
1.337
 11 
2.569
 21 
1.337
 0 
LINE
 8 
0
 62 
 7 
 10 
2.569
 20 
1.337
 11 
2.575
 21 
1.343
 0 
LINE
 8 
0
 62 
 7 
 10 
2.594
 20 
1.369
 11 
2.601
 21 
1.375
 0 
LINE
 8 
0
 62 
 7 
 10 
2.601
 20 
1.375
 11 
2.601
 21 
1.337
 0 
LINE
 8 
0
 62 
 7 
 10 
2.594
 20 
1.337
 11 
2.607
 21 
1.337
 0 
LINE
 8 
0
 62 
 7 
 10 
2.632
 20 
1.369
 11 
2.639
 21 
1.375
 0 
LINE
 8 
0
 62 
 7 
 10 
2.639
 20 
1.375
 11 
2.639
 21 
1.337
 0 
LINE
 8 
0
 62 
 7 
 10 
2.632
 20 
1.337
 11 
2.645
 21 
1.337
 0 
LINE
 8 
0
 62 
 7 
 10 
2.14
 20 
0.285
 11 
2.14
 21 
0.241
 0 
LINE
 8 
0
 62 
 7 
 10 
2.14
 20 
0.241
 11 
2.21
 21 
0.241
 0 
LINE
 8 
0
 62 
 7 
 10 
2.21
 20 
0.241
 11 
2.21
 21 
0.285
 0 
LINE
 8 
0
 62 
 7 
 10 
2.14
 20 
0.321
 11 
2.14
 21 
0.365
 0 
LINE
 8 
0
 62 
 7 
 10 
2.14
 20 
0.365
 11 
2.21
 21 
0.365
 0 
LINE
 8 
0
 62 
 7 
 10 
2.21
 20 
0.365
 11 
2.21
 21 
0.321
 0 
LINE
 8 
0
 62 
 7 
 10 
2.175
 20 
0.194
 11 
2.169
 21 
0.2
 0 
LINE
 8 
0
 62 
 7 
 10 
2.169
 20 
0.2
 11 
2.156
 21 
0.2
 0 
LINE
 8 
0
 62 
 7 
 10 
2.156
 20 
0.2
 11 
2.15
 21 
0.194
 0 
LINE
 8 
0
 62 
 7 
 10 
2.15
 20 
0.194
 11 
2.15
 21 
0.168
 0 
LINE
 8 
0
 62 
 7 
 10 
2.15
 20 
0.168
 11 
2.156
 21 
0.162
 0 
LINE
 8 
0
 62 
 7 
 10 
2.156
 20 
0.162
 11 
2.169
 21 
0.162
 0 
LINE
 8 
0
 62 
 7 
 10 
2.169
 20 
0.162
 11 
2.175
 21 
0.168
 0 
LINE
 8 
0
 62 
 7 
 10 
2.194
 20 
0.194
 11 
2.201
 21 
0.2
 0 
LINE
 8 
0
 62 
 7 
 10 
2.201
 20 
0.2
 11 
2.201
 21 
0.162
 0 
LINE
 8 
0
 62 
 7 
 10 
2.194
 20 
0.162
 11 
2.207
 21 
0.162
 0 
LINE
 8 
0
 62 
 7 
 10 
0.61
 20 
0.665
 11 
0.61
 21 
0.709
 0 
LINE
 8 
0
 62 
 7 
 10 
0.61
 20 
0.709
 11 
0.54
 21 
0.709
 0 
LINE
 8 
0
 62 
 7 
 10 
0.54
 20 
0.709
 11 
0.54
 21 
0.665
 0 
LINE
 8 
0
 62 
 7 
 10 
0.61
 20 
0.629
 11 
0.61
 21 
0.585
 0 
LINE
 8 
0
 62 
 7 
 10 
0.61
 20 
0.585
 11 
0.54
 21 
0.585
 0 
LINE
 8 
0
 62 
 7 
 10 
0.54
 20 
0.585
 11 
0.54
 21 
0.629
 0 
LINE
 8 
0
 62 
 7 
 10 
0.55
 20 
0.512
 11 
0.55
 21 
0.55
 0 
LINE
 8 
0
 62 
 7 
 10 
0.55
 20 
0.55
 11 
0.569
 21 
0.55
 0 
LINE
 8 
0
 62 
 7 
 10 
0.569
 20 
0.55
 11 
0.575
 21 
0.544
 0 
LINE
 8 
0
 62 
 7 
 10 
0.575
 20 
0.544
 11 
0.575
 21 
0.537
 0 
LINE
 8 
0
 62 
 7 
 10 
0.575
 20 
0.537
 11 
0.569
 21 
0.531
 0 
LINE
 8 
0
 62 
 7 
 10 
0.569
 20 
0.531
 11 
0.55
 21 
0.531
 0 
LINE
 8 
0
 62 
 7 
 10 
0.556
 20 
0.531
 11 
0.575
 21 
0.512
 0 
LINE
 8 
0
 62 
 7 
 10 
0.588
 20 
0.544
 11 
0.594
 21 
0.55
 0 
LINE
 8 
0
 62 
 7 
 10 
0.594
 20 
0.55
 11 
0.607
 21 
0.55
 0 
LINE
 8 
0
 62 
 7 
 10 
0.607
 20 
0.55
 11 
0.613
 21 
0.544
 0 
LINE
 8 
0
 62 
 7 
 10 
0.613
 20 
0.544
 11 
0.613
 21 
0.537
 0 
LINE
 8 
0
 62 
 7 
 10 
0.613
 20 
0.537
 11 
0.607
 21 
0.531
 0 
LINE
 8 
0
 62 
 7 
 10 
0.607
 20 
0.531
 11 
0.594
 21 
0.531
 0 
LINE
 8 
0
 62 
 7 
 10 
0.594
 20 
0.531
 11 
0.588
 21 
0.525
 0 
LINE
 8 
0
 62 
 7 
 10 
0.588
 20 
0.525
 11 
0.588
 21 
0.512
 0 
LINE
 8 
0
 62 
 7 
 10 
0.588
 20 
0.512
 11 
0.613
 21 
0.512
 0 
LINE
 8 
0
 62 
 7 
 10 
0.61
 20 
1.29
 11 
0.61
 21 
1.334
 0 
LINE
 8 
0
 62 
 7 
 10 
0.61
 20 
1.334
 11 
0.54
 21 
1.334
 0 
LINE
 8 
0
 62 
 7 
 10 
0.54
 20 
1.334
 11 
0.54
 21 
1.29
 0 
LINE
 8 
0
 62 
 7 
 10 
0.61
 20 
1.254
 11 
0.61
 21 
1.21
 0 
LINE
 8 
0
 62 
 7 
 10 
0.61
 20 
1.21
 11 
0.54
 21 
1.21
 0 
LINE
 8 
0
 62 
 7 
 10 
0.54
 20 
1.21
 11 
0.54
 21 
1.254
 0 
LINE
 8 
0
 62 
 7 
 10 
0.55
 20 
1.112
 11 
0.55
 21 
1.15
 0 
LINE
 8 
0
 62 
 7 
 10 
0.55
 20 
1.15
 11 
0.569
 21 
1.15
 0 
LINE
 8 
0
 62 
 7 
 10 
0.569
 20 
1.15
 11 
0.575
 21 
1.144
 0 
LINE
 8 
0
 62 
 7 
 10 
0.575
 20 
1.144
 11 
0.575
 21 
1.137
 0 
LINE
 8 
0
 62 
 7 
 10 
0.575
 20 
1.137
 11 
0.569
 21 
1.131
 0 
LINE
 8 
0
 62 
 7 
 10 
0.569
 20 
1.131
 11 
0.55
 21 
1.131
 0 
LINE
 8 
0
 62 
 7 
 10 
0.556
 20 
1.131
 11 
0.575
 21 
1.112
 0 
LINE
 8 
0
 62 
 7 
 10 
0.594
 20 
1.144
 11 
0.601
 21 
1.15
 0 
LINE
 8 
0
 62 
 7 
 10 
0.601
 20 
1.15
 11 
0.601
 21 
1.112
 0 
LINE
 8 
0
 62 
 7 
 10 
0.594
 20 
1.112
 11 
0.607
 21 
1.112
 0 
LINE
 8 
0
 62 
 7 
 10 
1.128
 20 
1.215
 11 
1.128
 21 
1.259
 0 
LINE
 8 
0
 62 
 7 
 10 
1.128
 20 
1.259
 11 
1.058
 21 
1.259
 0 
LINE
 8 
0
 62 
 7 
 10 
1.058
 20 
1.259
 11 
1.058
 21 
1.215
 0 
LINE
 8 
0
 62 
 7 
 10 
1.128
 20 
1.179
 11 
1.128
 21 
1.135
 0 
LINE
 8 
0
 62 
 7 
 10 
1.128
 20 
1.135
 11 
1.058
 21 
1.135
 0 
LINE
 8 
0
 62 
 7 
 10 
1.058
 20 
1.135
 11 
1.058
 21 
1.179
 0 
LINE
 8 
0
 62 
 7 
 10 
1.043
 20 
1.062
 11 
1.043
 21 
1.1
 0 
LINE
 8 
0
 62 
 7 
 10 
1.043
 20 
1.1
 11 
1.062
 21 
1.1
 0 
LINE
 8 
0
 62 
 7 
 10 
1.062
 20 
1.1
 11 
1.068
 21 
1.094
 0 
LINE
 8 
0
 62 
 7 
 10 
1.068
 20 
1.094
 11 
1.068
 21 
1.087
 0 
LINE
 8 
0
 62 
 7 
 10 
1.068
 20 
1.087
 11 
1.062
 21 
1.081
 0 
LINE
 8 
0
 62 
 7 
 10 
1.062
 20 
1.081
 11 
1.043
 21 
1.081
 0 
LINE
 8 
0
 62 
 7 
 10 
1.049
 20 
1.081
 11 
1.068
 21 
1.062
 0 
LINE
 8 
0
 62 
 7 
 10 
1.081
 20 
1.094
 11 
1.087
 21 
1.1
 0 
LINE
 8 
0
 62 
 7 
 10 
1.087
 20 
1.1
 11 
1.1
 21 
1.1
 0 
LINE
 8 
0
 62 
 7 
 10 
1.1
 20 
1.1
 11 
1.106
 21 
1.094
 0 
LINE
 8 
0
 62 
 7 
 10 
1.106
 20 
1.094
 11 
1.106
 21 
1.087
 0 
LINE
 8 
0
 62 
 7 
 10 
1.106
 20 
1.087
 11 
1.1
 21 
1.081
 0 
LINE
 8 
0
 62 
 7 
 10 
1.1
 20 
1.081
 11 
1.094
 21 
1.081
 0 
LINE
 8 
0
 62 
 7 
 10 
1.1
 20 
1.081
 11 
1.106
 21 
1.075
 0 
LINE
 8 
0
 62 
 7 
 10 
1.106
 20 
1.075
 11 
1.106
 21 
1.068
 0 
LINE
 8 
0
 62 
 7 
 10 
1.106
 20 
1.068
 11 
1.1
 21 
1.062
 0 
LINE
 8 
0
 62 
 7 
 10 
1.1
 20 
1.062
 11 
1.087
 21 
1.062
 0 
LINE
 8 
0
 62 
 7 
 10 
1.087
 20 
1.062
 11 
1.081
 21 
1.068
 0 
LINE
 8 
0
 62 
 7 
 10 
1.622
 20 
1.19
 11 
1.622
 21 
1.234
 0 
LINE
 8 
0
 62 
 7 
 10 
1.622
 20 
1.234
 11 
1.552
 21 
1.234
 0 
LINE
 8 
0
 62 
 7 
 10 
1.552
 20 
1.234
 11 
1.552
 21 
1.19
 0 
LINE
 8 
0
 62 
 7 
 10 
1.622
 20 
1.154
 11 
1.622
 21 
1.11
 0 
LINE
 8 
0
 62 
 7 
 10 
1.622
 20 
1.11
 11 
1.552
 21 
1.11
 0 
LINE
 8 
0
 62 
 7 
 10 
1.552
 20 
1.11
 11 
1.552
 21 
1.154
 0 
LINE
 8 
0
 62 
 7 
 10 
1.537
 20 
1.037
 11 
1.537
 21 
1.075
 0 
LINE
 8 
0
 62 
 7 
 10 
1.537
 20 
1.075
 11 
1.556
 21 
1.075
 0 
LINE
 8 
0
 62 
 7 
 10 
1.556
 20 
1.075
 11 
1.562
 21 
1.069
 0 
LINE
 8 
0
 62 
 7 
 10 
1.562
 20 
1.069
 11 
1.562
 21 
1.062
 0 
LINE
 8 
0
 62 
 7 
 10 
1.562
 20 
1.062
 11 
1.556
 21 
1.056
 0 
LINE
 8 
0
 62 
 7 
 10 
1.556
 20 
1.056
 11 
1.537
 21 
1.056
 0 
LINE
 8 
0
 62 
 7 
 10 
1.543
 20 
1.056
 11 
1.562
 21 
1.037
 0 
LINE
 8 
0
 62 
 7 
 10 
1.6
 20 
1.05
 11 
1.575
 21 
1.05
 0 
LINE
 8 
0
 62 
 7 
 10 
1.575
 20 
1.05
 11 
1.575
 21 
1.056
 0 
LINE
 8 
0
 62 
 7 
 10 
1.575
 20 
1.056
 11 
1.594
 21 
1.075
 0 
LINE
 8 
0
 62 
 7 
 10 
1.594
 20 
1.075
 11 
1.594
 21 
1.037
 0 
LINE
 8 
0
 62 
 7 
 10 
2.0
 20 
0.083
 11 
2.0
 21 
0.05
 0 
LINE
 8 
0
 62 
 7 
 10 
2.0
 20 
0.05
 11 
2.017
 21 
0.05
 0 
LINE
 8 
0
 62 
 7 
 10 
2.017
 20 
0.05
 11 
2.017
 21 
0.075
 0 
LINE
 8 
0
 62 
 7 
 10 
2.017
 20 
0.075
 11 
2.025
 21 
0.083
 0 
LINE
 8 
0
 62 
 7 
 10 
2.025
 20 
0.083
 11 
2.042
 21 
0.083
 0 
LINE
 8 
0
 62 
 7 
 10 
2.042
 20 
0.083
 11 
2.05
 21 
0.075
 0 
LINE
 8 
0
 62 
 7 
 10 
2.05
 20 
0.075
 11 
2.05
 21 
0.058
 0 
LINE
 8 
0
 62 
 7 
 10 
2.05
 20 
0.058
 11 
2.042
 21 
0.05
 0 
LINE
 8 
0
 62 
 7 
 10 
2.0
 20 
0.1
 11 
2.025
 21 
0.1
 0 
LINE
 8 
0
 62 
 7 
 10 
2.025
 20 
0.1
 11 
2.042
 21 
0.117
 0 
LINE
 8 
0
 62 
 7 
 10 
2.042
 20 
0.117
 11 
2.025
 21 
0.133
 0 
LINE
 8 
0
 62 
 7 
 10 
2.025
 20 
0.133
 11 
2.0
 21 
0.133
 0 
LINE
 8 
0
 62 
 7 
 10 
2.042
 20 
0.117
 11 
2.05
 21 
0.117
 0 
LINE
 8 
0
 62 
 7 
 10 
1.9
 20 
0.083
 11 
1.9
 21 
0.05
 0 
LINE
 8 
0
 62 
 7 
 10 
1.9
 20 
0.05
 11 
1.95
 21 
0.05
 0 
LINE
 8 
0
 62 
 7 
 10 
1.95
 20 
0.05
 11 
1.95
 21 
0.083
 0 
LINE
 8 
0
 62 
 7 
 10 
1.925
 20 
0.05
 11 
1.925
 21 
0.075
 0 
LINE
 8 
0
 62 
 7 
 10 
1.95
 20 
0.1
 11 
1.9
 21 
0.1
 0 
LINE
 8 
0
 62 
 7 
 10 
1.9
 20 
0.1
 11 
1.933
 21 
0.133
 0 
LINE
 8 
0
 62 
 7 
 10 
1.9
 20 
0.133
 11 
1.95
 21 
0.133
 0 
LINE
 8 
0
 62 
 7 
 10 
1.9
 20 
0.167
 11 
1.95
 21 
0.167
 0 
LINE
 8 
0
 62 
 7 
 10 
1.908
 20 
0.15
 11 
1.942
 21 
0.183
 0 
LINE
 8 
0
 62 
 7 
 10 
1.908
 20 
0.183
 11 
1.942
 21 
0.15
 0 
LINE
 8 
0
 62 
 7 
 10 
1.808
 20 
0.083
 11 
1.8
 21 
0.075
 0 
LINE
 8 
0
 62 
 7 
 10 
1.8
 20 
0.075
 11 
1.8
 21 
0.058
 0 
LINE
 8 
0
 62 
 7 
 10 
1.8
 20 
0.058
 11 
1.808
 21 
0.05
 0 
LINE
 8 
0
 62 
 7 
 10 
1.808
 20 
0.05
 11 
1.817
 21 
0.05
 0 
LINE
 8 
0
 62 
 7 
 10 
1.817
 20 
0.05
 11 
1.825
 21 
0.058
 0 
LINE
 8 
0
 62 
 7 
 10 
1.825
 20 
0.058
 11 
1.825
 21 
0.075
 0 
LINE
 8 
0
 62 
 7 
 10 
1.825
 20 
0.075
 11 
1.833
 21 
0.083
 0 
LINE
 8 
0
 62 
 7 
 10 
1.833
 20 
0.083
 11 
1.842
 21 
0.083
 0 
LINE
 8 
0
 62 
 7 
 10 
1.842
 20 
0.083
 11 
1.85
 21 
0.075
 0 
LINE
 8 
0
 62 
 7 
 10 
1.85
 20 
0.075
 11 
1.85
 21 
0.058
 0 
LINE
 8 
0
 62 
 7 
 10 
1.85
 20 
0.058
 11 
1.842
 21 
0.05
 0 
LINE
 8 
0
 62 
 7 
 10 
1.842
 20 
0.1
 11 
1.808
 21 
0.133
 0 
LINE
 8 
0
 62 
 7 
 10 
1.85
 20 
0.15
 11 
1.8
 21 
0.15
 0 
LINE
 8 
0
 62 
 7 
 10 
1.8
 20 
0.15
 11 
1.8
 21 
0.175
 0 
LINE
 8 
0
 62 
 7 
 10 
1.8
 20 
0.175
 11 
1.808
 21 
0.183
 0 
LINE
 8 
0
 62 
 7 
 10 
1.808
 20 
0.183
 11 
1.817
 21 
0.183
 0 
LINE
 8 
0
 62 
 7 
 10 
1.817
 20 
0.183
 11 
1.825
 21 
0.175
 0 
LINE
 8 
0
 62 
 7 
 10 
1.825
 20 
0.175
 11 
1.825
 21 
0.15
 0 
LINE
 8 
0
 62 
 7 
 10 
1.825
 20 
0.158
 11 
1.85
 21 
0.183
 0 
LINE
 8 
0
 62 
 7 
 10 
1.15
 20 
0.05
 11 
1.117
 21 
0.05
 0 
LINE
 8 
0
 62 
 7 
 10 
1.117
 20 
0.05
 11 
1.1
 21 
0.067
 0 
LINE
 8 
0
 62 
 7 
 10 
1.1
 20 
0.067
 11 
1.117
 21 
0.083
 0 
LINE
 8 
0
 62 
 7 
 10 
1.117
 20 
0.083
 11 
1.15
 21 
0.083
 0 
LINE
 8 
0
 62 
 7 
 10 
1.133
 20 
0.05
 11 
1.133
 21 
0.083
 0 
LINE
 8 
0
 62 
 7 
 10 
1.142
 20 
0.1
 11 
1.108
 21 
0.1
 0 
LINE
 8 
0
 62 
 7 
 10 
1.108
 20 
0.1
 11 
1.1
 21 
0.108
 0 
LINE
 8 
0
 62 
 7 
 10 
1.1
 20 
0.108
 11 
1.1
 21 
0.125
 0 
LINE
 8 
0
 62 
 7 
 10 
1.1
 20 
0.125
 11 
1.108
 21 
0.133
 0 
LINE
 8 
0
 62 
 7 
 10 
1.108
 20 
0.133
 11 
1.142
 21 
0.133
 0 
LINE
 8 
0
 62 
 7 
 10 
1.142
 20 
0.133
 11 
1.15
 21 
0.125
 0 
LINE
 8 
0
 62 
 7 
 10 
1.15
 20 
0.125
 11 
1.15
 21 
0.108
 0 
LINE
 8 
0
 62 
 7 
 10 
1.15
 20 
0.108
 11 
1.142
 21 
0.1
 0 
LINE
 8 
0
 62 
 7 
 10 
1.142
 20 
0.1
 11 
1.108
 21 
0.133
 0 
LINE
 8 
0
 62 
 7 
 10 
1.25
 20 
0.05
 11 
1.217
 21 
0.05
 0 
LINE
 8 
0
 62 
 7 
 10 
1.217
 20 
0.05
 11 
1.2
 21 
0.067
 0 
LINE
 8 
0
 62 
 7 
 10 
1.2
 20 
0.067
 11 
1.217
 21 
0.083
 0 
LINE
 8 
0
 62 
 7 
 10 
1.217
 20 
0.083
 11 
1.25
 21 
0.083
 0 
LINE
 8 
0
 62 
 7 
 10 
1.233
 20 
0.05
 11 
1.233
 21 
0.083
 0 
LINE
 8 
0
 62 
 7 
 10 
1.208
 20 
0.108
 11 
1.2
 21 
0.117
 0 
LINE
 8 
0
 62 
 7 
 10 
1.2
 20 
0.117
 11 
1.25
 21 
0.117
 0 
LINE
 8 
0
 62 
 7 
 10 
1.25
 20 
0.108
 11 
1.25
 21 
0.125
 0 
LINE
 8 
0
 62 
 7 
 10 
1.35
 20 
0.05
 11 
1.317
 21 
0.05
 0 
LINE
 8 
0
 62 
 7 
 10 
1.317
 20 
0.05
 11 
1.3
 21 
0.067
 0 
LINE
 8 
0
 62 
 7 
 10 
1.3
 20 
0.067
 11 
1.317
 21 
0.083
 0 
LINE
 8 
0
 62 
 7 
 10 
1.317
 20 
0.083
 11 
1.35
 21 
0.083
 0 
LINE
 8 
0
 62 
 7 
 10 
1.333
 20 
0.05
 11 
1.333
 21 
0.083
 0 
LINE
 8 
0
 62 
 7 
 10 
1.308
 20 
0.1
 11 
1.3
 21 
0.108
 0 
LINE
 8 
0
 62 
 7 
 10 
1.3
 20 
0.108
 11 
1.3
 21 
0.125
 0 
LINE
 8 
0
 62 
 7 
 10 
1.3
 20 
0.125
 11 
1.308
 21 
0.133
 0 
LINE
 8 
0
 62 
 7 
 10 
1.308
 20 
0.133
 11 
1.317
 21 
0.133
 0 
LINE
 8 
0
 62 
 7 
 10 
1.317
 20 
0.133
 11 
1.325
 21 
0.125
 0 
LINE
 8 
0
 62 
 7 
 10 
1.325
 20 
0.125
 11 
1.325
 21 
0.108
 0 
LINE
 8 
0
 62 
 7 
 10 
1.325
 20 
0.108
 11 
1.333
 21 
0.1
 0 
LINE
 8 
0
 62 
 7 
 10 
1.333
 20 
0.1
 11 
1.35
 21 
0.1
 0 
LINE
 8 
0
 62 
 7 
 10 
1.35
 20 
0.1
 11 
1.35
 21 
0.133
 0 
LINE
 8 
0
 62 
 7 
 10 
1.45
 20 
0.05
 11 
1.417
 21 
0.05
 0 
LINE
 8 
0
 62 
 7 
 10 
1.417
 20 
0.05
 11 
1.4
 21 
0.067
 0 
LINE
 8 
0
 62 
 7 
 10 
1.4
 20 
0.067
 11 
1.417
 21 
0.083
 0 
LINE
 8 
0
 62 
 7 
 10 
1.417
 20 
0.083
 11 
1.45
 21 
0.083
 0 
LINE
 8 
0
 62 
 7 
 10 
1.433
 20 
0.05
 11 
1.433
 21 
0.083
 0 
LINE
 8 
0
 62 
 7 
 10 
1.408
 20 
0.1
 11 
1.4
 21 
0.108
 0 
LINE
 8 
0
 62 
 7 
 10 
1.4
 20 
0.108
 11 
1.4
 21 
0.125
 0 
LINE
 8 
0
 62 
 7 
 10 
1.4
 20 
0.125
 11 
1.408
 21 
0.133
 0 
LINE
 8 
0
 62 
 7 
 10 
1.408
 20 
0.133
 11 
1.417
 21 
0.133
 0 
LINE
 8 
0
 62 
 7 
 10 
1.417
 20 
0.133
 11 
1.425
 21 
0.125
 0 
LINE
 8 
0
 62 
 7 
 10 
1.425
 20 
0.125
 11 
1.425
 21 
0.117
 0 
LINE
 8 
0
 62 
 7 
 10 
1.425
 20 
0.125
 11 
1.433
 21 
0.133
 0 
LINE
 8 
0
 62 
 7 
 10 
1.433
 20 
0.133
 11 
1.442
 21 
0.133
 0 
LINE
 8 
0
 62 
 7 
 10 
1.442
 20 
0.133
 11 
1.45
 21 
0.125
 0 
LINE
 8 
0
 62 
 7 
 10 
1.45
 20 
0.125
 11 
1.45
 21 
0.108
 0 
LINE
 8 
0
 62 
 7 
 10 
1.45
 20 
0.108
 11 
1.442
 21 
0.1
 0 
LINE
 8 
0
 62 
 7 
 10 
1.55
 20 
0.05
 11 
1.517
 21 
0.05
 0 
LINE
 8 
0
 62 
 7 
 10 
1.517
 20 
0.05
 11 
1.5
 21 
0.067
 0 
LINE
 8 
0
 62 
 7 
 10 
1.5
 20 
0.067
 11 
1.517
 21 
0.083
 0 
LINE
 8 
0
 62 
 7 
 10 
1.517
 20 
0.083
 11 
1.55
 21 
0.083
 0 
LINE
 8 
0
 62 
 7 
 10 
1.533
 20 
0.05
 11 
1.533
 21 
0.083
 0 
LINE
 8 
0
 62 
 7 
 10 
1.533
 20 
0.133
 11 
1.533
 21 
0.1
 0 
LINE
 8 
0
 62 
 7 
 10 
1.533
 20 
0.1
 11 
1.525
 21 
0.1
 0 
LINE
 8 
0
 62 
 7 
 10 
1.525
 20 
0.1
 11 
1.5
 21 
0.125
 0 
LINE
 8 
0
 62 
 7 
 10 
1.5
 20 
0.125
 11 
1.55
 21 
0.125
 0 
LINE
 8 
0
 62 
 7 
 10 
1.65
 20 
0.05
 11 
1.617
 21 
0.05
 0 
LINE
 8 
0
 62 
 7 
 10 
1.617
 20 
0.05
 11 
1.6
 21 
0.067
 0 
LINE
 8 
0
 62 
 7 
 10 
1.6
 20 
0.067
 11 
1.617
 21 
0.083
 0 
LINE
 8 
0
 62 
 7 
 10 
1.617
 20 
0.083
 11 
1.65
 21 
0.083
 0 
LINE
 8 
0
 62 
 7 
 10 
1.633
 20 
0.05
 11 
1.633
 21 
0.083
 0 
LINE
 8 
0
 62 
 7 
 10 
1.6
 20 
0.133
 11 
1.6
 21 
0.1
 0 
LINE
 8 
0
 62 
 7 
 10 
1.6
 20 
0.1
 11 
1.617
 21 
0.1
 0 
LINE
 8 
0
 62 
 7 
 10 
1.617
 20 
0.1
 11 
1.617
 21 
0.125
 0 
LINE
 8 
0
 62 
 7 
 10 
1.617
 20 
0.125
 11 
1.625
 21 
0.133
 0 
LINE
 8 
0
 62 
 7 
 10 
1.625
 20 
0.133
 11 
1.642
 21 
0.133
 0 
LINE
 8 
0
 62 
 7 
 10 
1.642
 20 
0.133
 11 
1.65
 21 
0.125
 0 
LINE
 8 
0
 62 
 7 
 10 
1.65
 20 
0.125
 11 
1.65
 21 
0.108
 0 
LINE
 8 
0
 62 
 7 
 10 
1.65
 20 
0.108
 11 
1.642
 21 
0.1
 0 
LINE
 8 
0
 62 
 7 
 10 
1.75
 20 
0.05
 11 
1.717
 21 
0.05
 0 
LINE
 8 
0
 62 
 7 
 10 
1.717
 20 
0.05
 11 
1.7
 21 
0.067
 0 
LINE
 8 
0
 62 
 7 
 10 
1.7
 20 
0.067
 11 
1.717
 21 
0.083
 0 
LINE
 8 
0
 62 
 7 
 10 
1.717
 20 
0.083
 11 
1.75
 21 
0.083
 0 
LINE
 8 
0
 62 
 7 
 10 
1.733
 20 
0.05
 11 
1.733
 21 
0.083
 0 
LINE
 8 
0
 62 
 7 
 10 
1.7
 20 
0.125
 11 
1.7
 21 
0.117
 0 
LINE
 8 
0
 62 
 7 
 10 
1.7
 20 
0.117
 11 
1.717
 21 
0.1
 0 
LINE
 8 
0
 62 
 7 
 10 
1.717
 20 
0.1
 11 
1.742
 21 
0.1
 0 
LINE
 8 
0
 62 
 7 
 10 
1.742
 20 
0.1
 11 
1.75
 21 
0.108
 0 
LINE
 8 
0
 62 
 7 
 10 
1.75
 20 
0.108
 11 
1.75
 21 
0.125
 0 
LINE
 8 
0
 62 
 7 
 10 
1.75
 20 
0.125
 11 
1.742
 21 
0.133
 0 
LINE
 8 
0
 62 
 7 
 10 
1.742
 20 
0.133
 11 
1.733
 21 
0.133
 0 
LINE
 8 
0
 62 
 7 
 10 
1.733
 20 
0.133
 11 
1.725
 21 
0.125
 0 
LINE
 8 
0
 62 
 7 
 10 
1.725
 20 
0.125
 11 
1.725
 21 
0.108
 0 
LINE
 8 
0
 62 
 7 
 10 
1.725
 20 
0.108
 11 
1.733
 21 
0.1
 0 
LINE
 8 
0
 62 
 7 
 10 
2.708
 20 
0.517
 11 
2.7
 21 
0.525
 0 
LINE
 8 
0
 62 
 7 
 10 
2.7
 20 
0.525
 11 
2.683
 21 
0.525
 0 
LINE
 8 
0
 62 
 7 
 10 
2.683
 20 
0.525
 11 
2.675
 21 
0.517
 0 
LINE
 8 
0
 62 
 7 
 10 
2.675
 20 
0.517
 11 
2.675
 21 
0.508
 0 
LINE
 8 
0
 62 
 7 
 10 
2.675
 20 
0.508
 11 
2.683
 21 
0.5
 0 
LINE
 8 
0
 62 
 7 
 10 
2.683
 20 
0.5
 11 
2.7
 21 
0.5
 0 
LINE
 8 
0
 62 
 7 
 10 
2.7
 20 
0.5
 11 
2.708
 21 
0.492
 0 
LINE
 8 
0
 62 
 7 
 10 
2.708
 20 
0.492
 11 
2.708
 21 
0.483
 0 
LINE
 8 
0
 62 
 7 
 10 
2.708
 20 
0.483
 11 
2.7
 21 
0.475
 0 
LINE
 8 
0
 62 
 7 
 10 
2.7
 20 
0.475
 11 
2.683
 21 
0.475
 0 
LINE
 8 
0
 62 
 7 
 10 
2.683
 20 
0.475
 11 
2.675
 21 
0.483
 0 
LINE
 8 
0
 62 
 7 
 10 
2.675
 20 
0.375
 11 
2.675
 21 
0.425
 0 
LINE
 8 
0
 62 
 7 
 10 
2.675
 20 
0.425
 11 
2.7
 21 
0.425
 0 
LINE
 8 
0
 62 
 7 
 10 
2.7
 20 
0.425
 11 
2.708
 21 
0.417
 0 
LINE
 8 
0
 62 
 7 
 10 
2.708
 20 
0.417
 11 
2.708
 21 
0.408
 0 
LINE
 8 
0
 62 
 7 
 10 
2.708
 20 
0.408
 11 
2.7
 21 
0.4
 0 
LINE
 8 
0
 62 
 7 
 10 
2.7
 20 
0.4
 11 
2.675
 21 
0.4
 0 
LINE
 8 
0
 62 
 7 
 10 
2.683
 20 
0.4
 11 
2.708
 21 
0.375
 0 
LINE
 8 
0
 62 
 7 
 10 
2.708
 20 
0.317
 11 
2.7
 21 
0.325
 0 
LINE
 8 
0
 62 
 7 
 10 
2.7
 20 
0.325
 11 
2.683
 21 
0.325
 0 
LINE
 8 
0
 62 
 7 
 10 
2.683
 20 
0.325
 11 
2.675
 21 
0.317
 0 
LINE
 8 
0
 62 
 7 
 10 
2.675
 20 
0.317
 11 
2.675
 21 
0.283
 0 
LINE
 8 
0
 62 
 7 
 10 
2.675
 20 
0.283
 11 
2.683
 21 
0.275
 0 
LINE
 8 
0
 62 
 7 
 10 
2.683
 20 
0.275
 11 
2.7
 21 
0.275
 0 
LINE
 8 
0
 62 
 7 
 10 
2.7
 20 
0.275
 11 
2.708
 21 
0.283
 0 
LINE
 8 
0
 62 
 7 
 10 
2.825
 20 
0.142
 11 
2.825
 21 
0.188
 0 
LINE
 8 
0
 62 
 7 
 10 
2.825
 20 
0.188
 11 
2.837
 21 
0.2
 0 
LINE
 8 
0
 62 
 7 
 10 
2.837
 20 
0.2
 11 
2.86
 21 
0.2
 0 
LINE
 8 
0
 62 
 7 
 10 
2.86
 20 
0.2
 11 
2.872
 21 
0.188
 0 
LINE
 8 
0
 62 
 7 
 10 
2.872
 20 
0.188
 11 
2.872
 21 
0.142
 0 
LINE
 8 
0
 62 
 7 
 10 
2.872
 20 
0.142
 11 
2.86
 21 
0.13
 0 
LINE
 8 
0
 62 
 7 
 10 
2.86
 20 
0.13
 11 
2.837
 21 
0.13
 0 
LINE
 8 
0
 62 
 7 
 10 
2.837
 20 
0.13
 11 
2.825
 21 
0.142
 0 
LINE
 8 
0
 62 
 7 
 10 
2.825
 20 
0.142
 11 
2.872
 21 
0.188
 0 
LINE
 8 
0
 62 
 7 
 10 
3.237
 20 
0.188
 11 
3.248
 21 
0.2
 0 
LINE
 8 
0
 62 
 7 
 10 
3.248
 20 
0.2
 11 
3.248
 21 
0.13
 0 
LINE
 8 
0
 62 
 7 
 10 
3.237
 20 
0.13
 11 
3.26
 21 
0.13
 0 
LINE
 8 
0
 62 
 7 
 10 
3.625
 20 
0.188
 11 
3.637
 21 
0.2
 0 
LINE
 8 
0
 62 
 7 
 10 
3.637
 20 
0.2
 11 
3.66
 21 
0.2
 0 
LINE
 8 
0
 62 
 7 
 10 
3.66
 20 
0.2
 11 
3.672
 21 
0.188
 0 
LINE
 8 
0
 62 
 7 
 10 
3.672
 20 
0.188
 11 
3.672
 21 
0.177
 0 
LINE
 8 
0
 62 
 7 
 10 
3.672
 20 
0.177
 11 
3.66
 21 
0.165
 0 
LINE
 8 
0
 62 
 7 
 10 
3.66
 20 
0.165
 11 
3.637
 21 
0.165
 0 
LINE
 8 
0
 62 
 7 
 10 
3.637
 20 
0.165
 11 
3.625
 21 
0.153
 0 
LINE
 8 
0
 62 
 7 
 10 
3.625
 20 
0.153
 11 
3.625
 21 
0.13
 0 
LINE
 8 
0
 62 
 7 
 10 
3.625
 20 
0.13
 11 
3.672
 21 
0.13
 0 
LINE
 8 
0
 62 
 7 
 10 
4.025
 20 
0.188
 11 
4.037
 21 
0.2
 0 
LINE
 8 
0
 62 
 7 
 10 
4.037
 20 
0.2
 11 
4.06
 21 
0.2
 0 
LINE
 8 
0
 62 
 7 
 10 
4.06
 20 
0.2
 11 
4.072
 21 
0.188
 0 
LINE
 8 
0
 62 
 7 
 10 
4.072
 20 
0.188
 11 
4.072
 21 
0.177
 0 
LINE
 8 
0
 62 
 7 
 10 
4.072
 20 
0.177
 11 
4.06
 21 
0.165
 0 
LINE
 8 
0
 62 
 7 
 10 
4.06
 20 
0.165
 11 
4.048
 21 
0.165
 0 
LINE
 8 
0
 62 
 7 
 10 
4.06
 20 
0.165
 11 
4.072
 21 
0.153
 0 
LINE
 8 
0
 62 
 7 
 10 
4.072
 20 
0.153
 11 
4.072
 21 
0.142
 0 
LINE
 8 
0
 62 
 7 
 10 
4.072
 20 
0.142
 11 
4.06
 21 
0.13
 0 
LINE
 8 
0
 62 
 7 
 10 
4.06
 20 
0.13
 11 
4.037
 21 
0.13
 0 
LINE
 8 
0
 62 
 7 
 10 
4.037
 20 
0.13
 11 
4.025
 21 
0.142
 0 
LINE
 8 
0
 62 
 7 
 10 
4.472
 20 
0.153
 11 
4.425
 21 
0.153
 0 
LINE
 8 
0
 62 
 7 
 10 
4.425
 20 
0.153
 11 
4.425
 21 
0.165
 0 
LINE
 8 
0
 62 
 7 
 10 
4.425
 20 
0.165
 11 
4.46
 21 
0.2
 0 
LINE
 8 
0
 62 
 7 
 10 
4.46
 20 
0.2
 11 
4.46
 21 
0.13
 0 
LINE
 8 
0
 62 
 7 
 10 
4.872
 20 
0.2
 11 
4.825
 21 
0.2
 0 
LINE
 8 
0
 62 
 7 
 10 
4.825
 20 
0.2
 11 
4.825
 21 
0.177
 0 
LINE
 8 
0
 62 
 7 
 10 
4.825
 20 
0.177
 11 
4.86
 21 
0.177
 0 
LINE
 8 
0
 62 
 7 
 10 
4.86
 20 
0.177
 11 
4.872
 21 
0.165
 0 
LINE
 8 
0
 62 
 7 
 10 
4.872
 20 
0.165
 11 
4.872
 21 
0.142
 0 
LINE
 8 
0
 62 
 7 
 10 
4.872
 20 
0.142
 11 
4.86
 21 
0.13
 0 
LINE
 8 
0
 62 
 7 
 10 
4.86
 20 
0.13
 11 
4.837
 21 
0.13
 0 
LINE
 8 
0
 62 
 7 
 10 
4.837
 20 
0.13
 11 
4.825
 21 
0.142
 0 
LINE
 8 
0
 62 
 7 
 10 
5.26
 20 
0.2
 11 
5.248
 21 
0.2
 0 
LINE
 8 
0
 62 
 7 
 10 
5.248
 20 
0.2
 11 
5.225
 21 
0.177
 0 
LINE
 8 
0
 62 
 7 
 10 
5.225
 20 
0.177
 11 
5.225
 21 
0.142
 0 
LINE
 8 
0
 62 
 7 
 10 
5.225
 20 
0.142
 11 
5.237
 21 
0.13
 0 
LINE
 8 
0
 62 
 7 
 10 
5.237
 20 
0.13
 11 
5.26
 21 
0.13
 0 
LINE
 8 
0
 62 
 7 
 10 
5.26
 20 
0.13
 11 
5.272
 21 
0.142
 0 
LINE
 8 
0
 62 
 7 
 10 
5.272
 20 
0.142
 11 
5.272
 21 
0.153
 0 
LINE
 8 
0
 62 
 7 
 10 
5.272
 20 
0.153
 11 
5.26
 21 
0.165
 0 
LINE
 8 
0
 62 
 7 
 10 
5.26
 20 
0.165
 11 
5.237
 21 
0.165
 0 
LINE
 8 
0
 62 
 7 
 10 
5.237
 20 
0.165
 11 
5.225
 21 
0.153
 0 
LINE
 8 
0
 62 
 7 
 10 
5.625
 20 
0.188
 11 
5.625
 21 
0.2
 0 
LINE
 8 
0
 62 
 7 
 10 
5.625
 20 
0.2
 11 
5.672
 21 
0.2
 0 
LINE
 8 
0
 62 
 7 
 10 
5.672
 20 
0.2
 11 
5.672
 21 
0.188
 0 
LINE
 8 
0
 62 
 7 
 10 
5.672
 20 
0.188
 11 
5.637
 21 
0.153
 0 
LINE
 8 
0
 62 
 7 
 10 
5.637
 20 
0.153
 11 
5.637
 21 
0.13
 0 
LINE
 8 
0
 62 
 7 
 10 
2.325
 20 
0.1
 11 
2.325
 21 
0.133
 0 
LINE
 8 
0
 62 
 7 
 10 
2.325
 20 
0.133
 11 
2.342
 21 
0.15
 0 
LINE
 8 
0
 62 
 7 
 10 
2.342
 20 
0.15
 11 
2.358
 21 
0.133
 0 
LINE
 8 
0
 62 
 7 
 10 
2.358
 20 
0.133
 11 
2.358
 21 
0.1
 0 
LINE
 8 
0
 62 
 7 
 10 
2.325
 20 
0.117
 11 
2.358
 21 
0.117
 0 
LINE
 8 
0
 62 
 7 
 10 
2.4
 20 
0.15
 11 
2.408
 21 
0.15
 0 
LINE
 8 
0
 62 
 7 
 10 
2.408
 20 
0.15
 11 
2.408
 21 
0.1
 0 
LINE
 8 
0
 62 
 7 
 10 
2.408
 20 
0.125
 11 
2.4
 21 
0.133
 0 
LINE
 8 
0
 62 
 7 
 10 
2.4
 20 
0.133
 11 
2.383
 21 
0.133
 0 
LINE
 8 
0
 62 
 7 
 10 
2.383
 20 
0.133
 11 
2.375
 21 
0.125
 0 
LINE
 8 
0
 62 
 7 
 10 
2.375
 20 
0.125
 11 
2.375
 21 
0.108
 0 
LINE
 8 
0
 62 
 7 
 10 
2.375
 20 
0.108
 11 
2.383
 21 
0.1
 0 
LINE
 8 
0
 62 
 7 
 10 
2.383
 20 
0.1
 11 
2.392
 21 
0.1
 0 
LINE
 8 
0
 62 
 7 
 10 
2.392
 20 
0.1
 11 
2.408
 21 
0.117
 0 
LINE
 8 
0
 62 
 7 
 10 
2.45
 20 
0.15
 11 
2.458
 21 
0.15
 0 
LINE
 8 
0
 62 
 7 
 10 
2.458
 20 
0.15
 11 
2.458
 21 
0.1
 0 
LINE
 8 
0
 62 
 7 
 10 
2.458
 20 
0.125
 11 
2.45
 21 
0.133
 0 
LINE
 8 
0
 62 
 7 
 10 
2.45
 20 
0.133
 11 
2.433
 21 
0.133
 0 
LINE
 8 
0
 62 
 7 
 10 
2.433
 20 
0.133
 11 
2.425
 21 
0.125
 0 
LINE
 8 
0
 62 
 7 
 10 
2.425
 20 
0.125
 11 
2.425
 21 
0.108
 0 
LINE
 8 
0
 62 
 7 
 10 
2.425
 20 
0.108
 11 
2.433
 21 
0.1
 0 
LINE
 8 
0
 62 
 7 
 10 
2.433
 20 
0.1
 11 
2.442
 21 
0.1
 0 
LINE
 8 
0
 62 
 7 
 10 
2.442
 20 
0.1
 11 
2.458
 21 
0.117
 0 
LINE
 8 
0
 62 
 7 
 10 
2.475
 20 
0.133
 11 
2.475
 21 
0.1
 0 
LINE
 8 
0
 62 
 7 
 10 
2.475
 20 
0.117
 11 
2.492
 21 
0.133
 0 
LINE
 8 
0
 62 
 7 
 10 
2.492
 20 
0.133
 11 
2.5
 21 
0.133
 0 
LINE
 8 
0
 62 
 7 
 10 
2.5
 20 
0.133
 11 
2.508
 21 
0.125
 0 
LINE
 8 
0
 62 
 7 
 10 
2.525
 20 
0.117
 11 
2.558
 21 
0.117
 0 
LINE
 8 
0
 62 
 7 
 10 
2.558
 20 
0.117
 11 
2.558
 21 
0.125
 0 
LINE
 8 
0
 62 
 7 
 10 
2.558
 20 
0.125
 11 
2.55
 21 
0.133
 0 
LINE
 8 
0
 62 
 7 
 10 
2.55
 20 
0.133
 11 
2.533
 21 
0.133
 0 
LINE
 8 
0
 62 
 7 
 10 
2.533
 20 
0.133
 11 
2.525
 21 
0.125
 0 
LINE
 8 
0
 62 
 7 
 10 
2.525
 20 
0.125
 11 
2.525
 21 
0.108
 0 
LINE
 8 
0
 62 
 7 
 10 
2.525
 20 
0.108
 11 
2.533
 21 
0.1
 0 
LINE
 8 
0
 62 
 7 
 10 
2.533
 20 
0.1
 11 
2.55
 21 
0.1
 0 
LINE
 8 
0
 62 
 7 
 10 
2.608
 20 
0.133
 11 
2.583
 21 
0.133
 0 
LINE
 8 
0
 62 
 7 
 10 
2.583
 20 
0.133
 11 
2.575
 21 
0.125
 0 
LINE
 8 
0
 62 
 7 
 10 
2.575
 20 
0.125
 11 
2.583
 21 
0.117
 0 
LINE
 8 
0
 62 
 7 
 10 
2.583
 20 
0.117
 11 
2.6
 21 
0.117
 0 
LINE
 8 
0
 62 
 7 
 10 
2.6
 20 
0.117
 11 
2.608
 21 
0.108
 0 
LINE
 8 
0
 62 
 7 
 10 
2.608
 20 
0.108
 11 
2.6
 21 
0.1
 0 
LINE
 8 
0
 62 
 7 
 10 
2.6
 20 
0.1
 11 
2.575
 21 
0.1
 0 
LINE
 8 
0
 62 
 7 
 10 
2.658
 20 
0.133
 11 
2.633
 21 
0.133
 0 
LINE
 8 
0
 62 
 7 
 10 
2.633
 20 
0.133
 11 
2.625
 21 
0.125
 0 
LINE
 8 
0
 62 
 7 
 10 
2.625
 20 
0.125
 11 
2.633
 21 
0.117
 0 
LINE
 8 
0
 62 
 7 
 10 
2.633
 20 
0.117
 11 
2.65
 21 
0.117
 0 
LINE
 8 
0
 62 
 7 
 10 
2.65
 20 
0.117
 11 
2.658
 21 
0.108
 0 
LINE
 8 
0
 62 
 7 
 10 
2.658
 20 
0.108
 11 
2.65
 21 
0.1
 0 
LINE
 8 
0
 62 
 7 
 10 
2.65
 20 
0.1
 11 
2.625
 21 
0.1
 0 
LINE
 8 
0
 62 
 7 
 10 
3.1
 20 
1.4
 11 
3.1
 21 
1.5
 0 
LINE
 8 
0
 62 
 7 
 10 
3.1
 20 
1.5
 11 
3.15
 21 
1.5
 0 
LINE
 8 
0
 62 
 7 
 10 
3.15
 20 
1.5
 11 
3.167
 21 
1.483
 0 
LINE
 8 
0
 62 
 7 
 10 
3.167
 20 
1.483
 11 
3.167
 21 
1.467
 0 
LINE
 8 
0
 62 
 7 
 10 
3.167
 20 
1.467
 11 
3.15
 21 
1.45
 0 
LINE
 8 
0
 62 
 7 
 10 
3.15
 20 
1.45
 11 
3.1
 21 
1.45
 0 
LINE
 8 
0
 62 
 7 
 10 
3.117
 20 
1.45
 11 
3.167
 21 
1.4
 0 
LINE
 8 
0
 62 
 7 
 10 
3.2
 20 
1.433
 11 
3.267
 21 
1.433
 0 
LINE
 8 
0
 62 
 7 
 10 
3.267
 20 
1.433
 11 
3.267
 21 
1.45
 0 
LINE
 8 
0
 62 
 7 
 10 
3.267
 20 
1.45
 11 
3.25
 21 
1.467
 0 
LINE
 8 
0
 62 
 7 
 10 
3.25
 20 
1.467
 11 
3.217
 21 
1.467
 0 
LINE
 8 
0
 62 
 7 
 10 
3.217
 20 
1.467
 11 
3.2
 21 
1.45
 0 
LINE
 8 
0
 62 
 7 
 10 
3.2
 20 
1.45
 11 
3.2
 21 
1.417
 0 
LINE
 8 
0
 62 
 7 
 10 
3.2
 20 
1.417
 11 
3.217
 21 
1.4
 0 
LINE
 8 
0
 62 
 7 
 10 
3.217
 20 
1.4
 11 
3.25
 21 
1.4
 0 
LINE
 8 
0
 62 
 7 
 10 
3.317
 20 
1.5
 11 
3.333
 21 
1.5
 0 
LINE
 8 
0
 62 
 7 
 10 
3.333
 20 
1.5
 11 
3.333
 21 
1.4
 0 
LINE
 8 
0
 62 
 7 
 10 
3.317
 20 
1.4
 11 
3.35
 21 
1.4
 0 
LINE
 8 
0
 62 
 7 
 10 
3.417
 20 
1.467
 11 
3.45
 21 
1.467
 0 
LINE
 8 
0
 62 
 7 
 10 
3.45
 20 
1.467
 11 
3.467
 21 
1.45
 0 
LINE
 8 
0
 62 
 7 
 10 
3.467
 20 
1.45
 11 
3.467
 21 
1.4
 0 
LINE
 8 
0
 62 
 7 
 10 
3.467
 20 
1.433
 11 
3.417
 21 
1.433
 0 
LINE
 8 
0
 62 
 7 
 10 
3.417
 20 
1.433
 11 
3.4
 21 
1.417
 0 
LINE
 8 
0
 62 
 7 
 10 
3.4
 20 
1.417
 11 
3.417
 21 
1.4
 0 
LINE
 8 
0
 62 
 7 
 10 
3.417
 20 
1.4
 11 
3.45
 21 
1.4
 0 
LINE
 8 
0
 62 
 7 
 10 
3.45
 20 
1.4
 11 
3.467
 21 
1.417
 0 
LINE
 8 
0
 62 
 7 
 10 
3.5
 20 
1.467
 11 
3.5
 21 
1.417
 0 
LINE
 8 
0
 62 
 7 
 10 
3.5
 20 
1.417
 11 
3.517
 21 
1.4
 0 
LINE
 8 
0
 62 
 7 
 10 
3.517
 20 
1.4
 11 
3.533
 21 
1.4
 0 
LINE
 8 
0
 62 
 7 
 10 
3.533
 20 
1.4
 11 
3.567
 21 
1.433
 0 
LINE
 8 
0
 62 
 7 
 10 
3.567
 20 
1.467
 11 
3.567
 21 
1.383
 0 
LINE
 8 
0
 62 
 7 
 10 
3.567
 20 
1.383
 11 
3.55
 21 
1.367
 0 
LINE
 8 
0
 62 
 7 
 10 
3.55
 20 
1.367
 11 
3.5
 21 
1.367
 0 
LINE
 8 
0
 62 
 7 
 10 
3.7
 20 
1.5
 11 
3.75
 21 
1.5
 0 
LINE
 8 
0
 62 
 7 
 10 
3.75
 20 
1.5
 11 
3.767
 21 
1.483
 0 
LINE
 8 
0
 62 
 7 
 10 
3.767
 20 
1.483
 11 
3.767
 21 
1.467
 0 
LINE
 8 
0
 62 
 7 
 10 
3.767
 20 
1.467
 11 
3.75
 21 
1.45
 0 
LINE
 8 
0
 62 
 7 
 10 
3.75
 20 
1.45
 11 
3.767
 21 
1.433
 0 
LINE
 8 
0
 62 
 7 
 10 
3.767
 20 
1.433
 11 
3.767
 21 
1.417
 0 
LINE
 8 
0
 62 
 7 
 10 
3.767
 20 
1.417
 11 
3.75
 21 
1.4
 0 
LINE
 8 
0
 62 
 7 
 10 
3.75
 20 
1.4
 11 
3.7
 21 
1.4
 0 
LINE
 8 
0
 62 
 7 
 10 
3.717
 20 
1.5
 11 
3.717
 21 
1.4
 0 
LINE
 8 
0
 62 
 7 
 10 
3.717
 20 
1.45
 11 
3.75
 21 
1.45
 0 
LINE
 8 
0
 62 
 7 
 10 
3.867
 20 
1.45
 11 
3.85
 21 
1.467
 0 
LINE
 8 
0
 62 
 7 
 10 
3.85
 20 
1.467
 11 
3.817
 21 
1.467
 0 
LINE
 8 
0
 62 
 7 
 10 
3.817
 20 
1.467
 11 
3.8
 21 
1.45
 0 
LINE
 8 
0
 62 
 7 
 10 
3.8
 20 
1.45
 11 
3.8
 21 
1.417
 0 
LINE
 8 
0
 62 
 7 
 10 
3.8
 20 
1.417
 11 
3.817
 21 
1.4
 0 
LINE
 8 
0
 62 
 7 
 10 
3.817
 20 
1.4
 11 
3.85
 21 
1.4
 0 
LINE
 8 
0
 62 
 7 
 10 
3.85
 20 
1.4
 11 
3.867
 21 
1.417
 0 
LINE
 8 
0
 62 
 7 
 10 
3.867
 20 
1.417
 11 
3.867
 21 
1.45
 0 
LINE
 8 
0
 62 
 7 
 10 
3.917
 20 
1.467
 11 
3.95
 21 
1.467
 0 
LINE
 8 
0
 62 
 7 
 10 
3.95
 20 
1.467
 11 
3.967
 21 
1.45
 0 
LINE
 8 
0
 62 
 7 
 10 
3.967
 20 
1.45
 11 
3.967
 21 
1.4
 0 
LINE
 8 
0
 62 
 7 
 10 
3.967
 20 
1.433
 11 
3.917
 21 
1.433
 0 
LINE
 8 
0
 62 
 7 
 10 
3.917
 20 
1.433
 11 
3.9
 21 
1.417
 0 
LINE
 8 
0
 62 
 7 
 10 
3.9
 20 
1.417
 11 
3.917
 21 
1.4
 0 
LINE
 8 
0
 62 
 7 
 10 
3.917
 20 
1.4
 11 
3.95
 21 
1.4
 0 
LINE
 8 
0
 62 
 7 
 10 
3.95
 20 
1.4
 11 
3.967
 21 
1.417
 0 
LINE
 8 
0
 62 
 7 
 10 
4.0
 20 
1.467
 11 
4.0
 21 
1.4
 0 
LINE
 8 
0
 62 
 7 
 10 
4.0
 20 
1.433
 11 
4.033
 21 
1.467
 0 
LINE
 8 
0
 62 
 7 
 10 
4.033
 20 
1.467
 11 
4.05
 21 
1.467
 0 
LINE
 8 
0
 62 
 7 
 10 
4.05
 20 
1.467
 11 
4.067
 21 
1.45
 0 
LINE
 8 
0
 62 
 7 
 10 
4.15
 20 
1.5
 11 
4.167
 21 
1.5
 0 
LINE
 8 
0
 62 
 7 
 10 
4.167
 20 
1.5
 11 
4.167
 21 
1.4
 0 
LINE
 8 
0
 62 
 7 
 10 
4.167
 20 
1.45
 11 
4.15
 21 
1.467
 0 
LINE
 8 
0
 62 
 7 
 10 
4.15
 20 
1.467
 11 
4.117
 21 
1.467
 0 
LINE
 8 
0
 62 
 7 
 10 
4.117
 20 
1.467
 11 
4.1
 21 
1.45
 0 
LINE
 8 
0
 62 
 7 
 10 
4.1
 20 
1.45
 11 
4.1
 21 
1.417
 0 
LINE
 8 
0
 62 
 7 
 10 
4.1
 20 
1.417
 11 
4.117
 21 
1.4
 0 
LINE
 8 
0
 62 
 7 
 10 
4.117
 20 
1.4
 11 
4.133
 21 
1.4
 0 
LINE
 8 
0
 62 
 7 
 10 
4.133
 20 
1.4
 11 
4.167
 21 
1.433
 0 
LINE
 8 
0
 62 
 7 
 10 
4.375
 20 
1.408
 11 
4.375
 21 
1.383
 0 
LINE
 8 
0
 62 
 7 
 10 
4.375
 20 
1.383
 11 
4.383
 21 
1.375
 0 
LINE
 8 
0
 62 
 7 
 10 
4.383
 20 
1.375
 11 
4.392
 21 
1.383
 0 
LINE
 8 
0
 62 
 7 
 10 
4.392
 20 
1.383
 11 
4.392
 21 
1.392
 0 
LINE
 8 
0
 62 
 7 
 10 
4.392
 20 
1.383
 11 
4.4
 21 
1.375
 0 
LINE
 8 
0
 62 
 7 
 10 
4.4
 20 
1.375
 11 
4.408
 21 
1.383
 0 
LINE
 8 
0
 62 
 7 
 10 
4.408
 20 
1.383
 11 
4.408
 21 
1.408
 0 
LINE
 8 
0
 62 
 7 
 10 
4.425
 20 
1.408
 11 
4.425
 21 
1.383
 0 
LINE
 8 
0
 62 
 7 
 10 
4.425
 20 
1.383
 11 
4.433
 21 
1.375
 0 
LINE
 8 
0
 62 
 7 
 10 
4.433
 20 
1.375
 11 
4.442
 21 
1.383
 0 
LINE
 8 
0
 62 
 7 
 10 
4.442
 20 
1.383
 11 
4.442
 21 
1.392
 0 
LINE
 8 
0
 62 
 7 
 10 
4.442
 20 
1.383
 11 
4.45
 21 
1.375
 0 
LINE
 8 
0
 62 
 7 
 10 
4.45
 20 
1.375
 11 
4.458
 21 
1.383
 0 
LINE
 8 
0
 62 
 7 
 10 
4.458
 20 
1.383
 11 
4.458
 21 
1.408
 0 
LINE
 8 
0
 62 
 7 
 10 
4.475
 20 
1.408
 11 
4.475
 21 
1.383
 0 
LINE
 8 
0
 62 
 7 
 10 
4.475
 20 
1.383
 11 
4.483
 21 
1.375
 0 
LINE
 8 
0
 62 
 7 
 10 
4.483
 20 
1.375
 11 
4.492
 21 
1.383
 0 
LINE
 8 
0
 62 
 7 
 10 
4.492
 20 
1.383
 11 
4.492
 21 
1.392
 0 
LINE
 8 
0
 62 
 7 
 10 
4.492
 20 
1.383
 11 
4.5
 21 
1.375
 0 
LINE
 8 
0
 62 
 7 
 10 
4.5
 20 
1.375
 11 
4.508
 21 
1.383
 0 
LINE
 8 
0
 62 
 7 
 10 
4.508
 20 
1.383
 11 
4.508
 21 
1.408
 0 
LINE
 8 
0
 62 
 7 
 10 
4.542
 20 
1.375
 11 
4.533
 21 
1.375
 0 
LINE
 8 
0
 62 
 7 
 10 
4.533
 20 
1.375
 11 
4.533
 21 
1.383
 0 
LINE
 8 
0
 62 
 7 
 10 
4.533
 20 
1.383
 11 
4.542
 21 
1.383
 0 
LINE
 8 
0
 62 
 7 
 10 
4.542
 20 
1.383
 11 
4.542
 21 
1.375
 0 
LINE
 8 
0
 62 
 7 
 10 
4.583
 20 
1.408
 11 
4.6
 21 
1.408
 0 
LINE
 8 
0
 62 
 7 
 10 
4.6
 20 
1.408
 11 
4.608
 21 
1.4
 0 
LINE
 8 
0
 62 
 7 
 10 
4.608
 20 
1.4
 11 
4.608
 21 
1.375
 0 
LINE
 8 
0
 62 
 7 
 10 
4.608
 20 
1.392
 11 
4.583
 21 
1.392
 0 
LINE
 8 
0
 62 
 7 
 10 
4.583
 20 
1.392
 11 
4.575
 21 
1.383
 0 
LINE
 8 
0
 62 
 7 
 10 
4.575
 20 
1.383
 11 
4.583
 21 
1.375
 0 
LINE
 8 
0
 62 
 7 
 10 
4.583
 20 
1.375
 11 
4.6
 21 
1.375
 0 
LINE
 8 
0
 62 
 7 
 10 
4.6
 20 
1.375
 11 
4.608
 21 
1.383
 0 
LINE
 8 
0
 62 
 7 
 10 
4.658
 20 
1.408
 11 
4.633
 21 
1.408
 0 
LINE
 8 
0
 62 
 7 
 10 
4.633
 20 
1.408
 11 
4.625
 21 
1.4
 0 
LINE
 8 
0
 62 
 7 
 10 
4.625
 20 
1.4
 11 
4.633
 21 
1.392
 0 
LINE
 8 
0
 62 
 7 
 10 
4.633
 20 
1.392
 11 
4.65
 21 
1.392
 0 
LINE
 8 
0
 62 
 7 
 10 
4.65
 20 
1.392
 11 
4.658
 21 
1.383
 0 
LINE
 8 
0
 62 
 7 
 10 
4.658
 20 
1.383
 11 
4.65
 21 
1.375
 0 
LINE
 8 
0
 62 
 7 
 10 
4.65
 20 
1.375
 11 
4.625
 21 
1.375
 0 
LINE
 8 
0
 62 
 7 
 10 
4.675
 20 
1.408
 11 
4.675
 21 
1.358
 0 
LINE
 8 
0
 62 
 7 
 10 
4.675
 20 
1.4
 11 
4.683
 21 
1.408
 0 
LINE
 8 
0
 62 
 7 
 10 
4.683
 20 
1.408
 11 
4.7
 21 
1.408
 0 
LINE
 8 
0
 62 
 7 
 10 
4.7
 20 
1.408
 11 
4.708
 21 
1.4
 0 
LINE
 8 
0
 62 
 7 
 10 
4.708
 20 
1.4
 11 
4.708
 21 
1.383
 0 
LINE
 8 
0
 62 
 7 
 10 
4.708
 20 
1.383
 11 
4.7
 21 
1.375
 0 
LINE
 8 
0
 62 
 7 
 10 
4.7
 20 
1.375
 11 
4.692
 21 
1.375
 0 
LINE
 8 
0
 62 
 7 
 10 
4.692
 20 
1.375
 11 
4.675
 21 
1.392
 0 
LINE
 8 
0
 62 
 7 
 10 
4.725
 20 
1.4
 11 
4.758
 21 
1.4
 0 
LINE
 8 
0
 62 
 7 
 10 
4.808
 20 
1.408
 11 
4.783
 21 
1.408
 0 
LINE
 8 
0
 62 
 7 
 10 
4.783
 20 
1.408
 11 
4.775
 21 
1.4
 0 
LINE
 8 
0
 62 
 7 
 10 
4.775
 20 
1.4
 11 
4.783
 21 
1.392
 0 
LINE
 8 
0
 62 
 7 
 10 
4.783
 20 
1.392
 11 
4.8
 21 
1.392
 0 
LINE
 8 
0
 62 
 7 
 10 
4.8
 20 
1.392
 11 
4.808
 21 
1.383
 0 
LINE
 8 
0
 62 
 7 
 10 
4.808
 20 
1.383
 11 
4.8
 21 
1.375
 0 
LINE
 8 
0
 62 
 7 
 10 
4.8
 20 
1.375
 11 
4.775
 21 
1.375
 0 
LINE
 8 
0
 62 
 7 
 10 
4.825
 20 
1.408
 11 
4.825
 21 
1.383
 0 
LINE
 8 
0
 62 
 7 
 10 
4.825
 20 
1.383
 11 
4.833
 21 
1.375
 0 
LINE
 8 
0
 62 
 7 
 10 
4.833
 20 
1.375
 11 
4.842
 21 
1.375
 0 
LINE
 8 
0
 62 
 7 
 10 
4.842
 20 
1.375
 11 
4.858
 21 
1.392
 0 
LINE
 8 
0
 62 
 7 
 10 
4.858
 20 
1.408
 11 
4.858
 21 
1.375
 0 
LINE
 8 
0
 62 
 7 
 10 
4.875
 20 
1.408
 11 
4.875
 21 
1.358
 0 
LINE
 8 
0
 62 
 7 
 10 
4.875
 20 
1.4
 11 
4.883
 21 
1.408
 0 
LINE
 8 
0
 62 
 7 
 10 
4.883
 20 
1.408
 11 
4.9
 21 
1.408
 0 
LINE
 8 
0
 62 
 7 
 10 
4.9
 20 
1.408
 11 
4.908
 21 
1.4
 0 
LINE
 8 
0
 62 
 7 
 10 
4.908
 20 
1.4
 11 
4.908
 21 
1.383
 0 
LINE
 8 
0
 62 
 7 
 10 
4.908
 20 
1.383
 11 
4.9
 21 
1.375
 0 
LINE
 8 
0
 62 
 7 
 10 
4.9
 20 
1.375
 11 
4.892
 21 
1.375
 0 
LINE
 8 
0
 62 
 7 
 10 
4.892
 20 
1.375
 11 
4.875
 21 
1.392
 0 
LINE
 8 
0
 62 
 7 
 10 
4.925
 20 
1.408
 11 
4.925
 21 
1.358
 0 
LINE
 8 
0
 62 
 7 
 10 
4.925
 20 
1.4
 11 
4.933
 21 
1.408
 0 
LINE
 8 
0
 62 
 7 
 10 
4.933
 20 
1.408
 11 
4.95
 21 
1.408
 0 
LINE
 8 
0
 62 
 7 
 10 
4.95
 20 
1.408
 11 
4.958
 21 
1.4
 0 
LINE
 8 
0
 62 
 7 
 10 
4.958
 20 
1.4
 11 
4.958
 21 
1.383
 0 
LINE
 8 
0
 62 
 7 
 10 
4.958
 20 
1.383
 11 
4.95
 21 
1.375
 0 
LINE
 8 
0
 62 
 7 
 10 
4.95
 20 
1.375
 11 
4.942
 21 
1.375
 0 
LINE
 8 
0
 62 
 7 
 10 
4.942
 20 
1.375
 11 
4.925
 21 
1.392
 0 
LINE
 8 
0
 62 
 7 
 10 
5.008
 20 
1.4
 11 
5.0
 21 
1.408
 0 
LINE
 8 
0
 62 
 7 
 10 
5.0
 20 
1.408
 11 
4.983
 21 
1.408
 0 
LINE
 8 
0
 62 
 7 
 10 
4.983
 20 
1.408
 11 
4.975
 21 
1.4
 0 
LINE
 8 
0
 62 
 7 
 10 
4.975
 20 
1.4
 11 
4.975
 21 
1.383
 0 
LINE
 8 
0
 62 
 7 
 10 
4.975
 20 
1.383
 11 
4.983
 21 
1.375
 0 
LINE
 8 
0
 62 
 7 
 10 
4.983
 20 
1.375
 11 
5.0
 21 
1.375
 0 
LINE
 8 
0
 62 
 7 
 10 
5.0
 20 
1.375
 11 
5.008
 21 
1.383
 0 
LINE
 8 
0
 62 
 7 
 10 
5.008
 20 
1.383
 11 
5.008
 21 
1.4
 0 
LINE
 8 
0
 62 
 7 
 10 
5.025
 20 
1.408
 11 
5.025
 21 
1.375
 0 
LINE
 8 
0
 62 
 7 
 10 
5.025
 20 
1.392
 11 
5.042
 21 
1.408
 0 
LINE
 8 
0
 62 
 7 
 10 
5.042
 20 
1.408
 11 
5.05
 21 
1.408
 0 
LINE
 8 
0
 62 
 7 
 10 
5.05
 20 
1.408
 11 
5.058
 21 
1.4
 0 
LINE
 8 
0
 62 
 7 
 10 
5.083
 20 
1.425
 11 
5.083
 21 
1.383
 0 
LINE
 8 
0
 62 
 7 
 10 
5.083
 20 
1.383
 11 
5.092
 21 
1.375
 0 
LINE
 8 
0
 62 
 7 
 10 
5.092
 20 
1.375
 11 
5.1
 21 
1.375
 0 
LINE
 8 
0
 62 
 7 
 10 
5.1
 20 
1.375
 11 
5.108
 21 
1.383
 0 
LINE
 8 
0
 62 
 7 
 10 
5.075
 20 
1.408
 11 
5.1
 21 
1.408
 0 
LINE
 8 
0
 62 
 7 
 10 
5.142
 20 
1.375
 11 
5.133
 21 
1.375
 0 
LINE
 8 
0
 62 
 7 
 10 
5.133
 20 
1.375
 11 
5.133
 21 
1.383
 0 
LINE
 8 
0
 62 
 7 
 10 
5.133
 20 
1.383
 11 
5.142
 21 
1.383
 0 
LINE
 8 
0
 62 
 7 
 10 
5.142
 20 
1.383
 11 
5.142
 21 
1.375
 0 
LINE
 8 
0
 62 
 7 
 10 
5.208
 20 
1.4
 11 
5.2
 21 
1.408
 0 
LINE
 8 
0
 62 
 7 
 10 
5.2
 20 
1.408
 11 
5.183
 21 
1.408
 0 
LINE
 8 
0
 62 
 7 
 10 
5.183
 20 
1.408
 11 
5.175
 21 
1.4
 0 
LINE
 8 
0
 62 
 7 
 10 
5.175
 20 
1.4
 11 
5.175
 21 
1.383
 0 
LINE
 8 
0
 62 
 7 
 10 
5.175
 20 
1.383
 11 
5.183
 21 
1.375
 0 
LINE
 8 
0
 62 
 7 
 10 
5.183
 20 
1.375
 11 
5.2
 21 
1.375
 0 
LINE
 8 
0
 62 
 7 
 10 
5.2
 20 
1.375
 11 
5.208
 21 
1.383
 0 
LINE
 8 
0
 62 
 7 
 10 
5.258
 20 
1.4
 11 
5.25
 21 
1.408
 0 
LINE
 8 
0
 62 
 7 
 10 
5.25
 20 
1.408
 11 
5.233
 21 
1.408
 0 
LINE
 8 
0
 62 
 7 
 10 
5.233
 20 
1.408
 11 
5.225
 21 
1.4
 0 
LINE
 8 
0
 62 
 7 
 10 
5.225
 20 
1.4
 11 
5.225
 21 
1.383
 0 
LINE
 8 
0
 62 
 7 
 10 
5.225
 20 
1.383
 11 
5.233
 21 
1.375
 0 
LINE
 8 
0
 62 
 7 
 10 
5.233
 20 
1.375
 11 
5.25
 21 
1.375
 0 
LINE
 8 
0
 62 
 7 
 10 
5.25
 20 
1.375
 11 
5.258
 21 
1.383
 0 
LINE
 8 
0
 62 
 7 
 10 
5.258
 20 
1.383
 11 
5.258
 21 
1.4
 0 
LINE
 8 
0
 62 
 7 
 10 
5.275
 20 
1.408
 11 
5.275
 21 
1.375
 0 
LINE
 8 
0
 62 
 7 
 10 
5.275
 20 
1.4
 11 
5.283
 21 
1.408
 0 
LINE
 8 
0
 62 
 7 
 10 
5.283
 20 
1.408
 11 
5.292
 21 
1.4
 0 
LINE
 8 
0
 62 
 7 
 10 
5.292
 20 
1.4
 11 
5.292
 21 
1.375
 0 
LINE
 8 
0
 62 
 7 
 10 
5.292
 20 
1.4
 11 
5.3
 21 
1.408
 0 
LINE
 8 
0
 62 
 7 
 10 
5.3
 20 
1.408
 11 
5.308
 21 
1.4
 0 
LINE
 8 
0
 62 
 7 
 10 
5.308
 20 
1.4
 11 
5.308
 21 
1.375
 0 
LINE
 8 
0
 62 
 7 
 10 
4.3
 20 
1.45
 11 
4.3
 21 
1.49
 0 
LINE
 8 
0
 62 
 7 
 10 
4.3
 20 
1.49
 11 
4.31
 21 
1.5
 0 
LINE
 8 
0
 62 
 7 
 10 
4.31
 20 
1.5
 11 
4.33
 21 
1.5
 0 
LINE
 8 
0
 62 
 7 
 10 
4.33
 20 
1.5
 11 
4.34
 21 
1.49
 0 
LINE
 8 
0
 62 
 7 
 10 
4.34
 20 
1.49
 11 
4.34
 21 
1.45
 0 
LINE
 8 
0
 62 
 7 
 10 
4.34
 20 
1.45
 11 
4.33
 21 
1.44
 0 
LINE
 8 
0
 62 
 7 
 10 
4.33
 20 
1.44
 11 
4.31
 21 
1.44
 0 
LINE
 8 
0
 62 
 7 
 10 
4.31
 20 
1.44
 11 
4.3
 21 
1.45
 0 
LINE
 8 
0
 62 
 7 
 10 
4.3
 20 
1.45
 11 
4.34
 21 
1.49
 0 
LINE
 8 
0
 62 
 7 
 10 
4.36
 20 
1.49
 11 
4.37
 21 
1.5
 0 
LINE
 8 
0
 62 
 7 
 10 
4.37
 20 
1.5
 11 
4.39
 21 
1.5
 0 
LINE
 8 
0
 62 
 7 
 10 
4.39
 20 
1.5
 11 
4.4
 21 
1.49
 0 
LINE
 8 
0
 62 
 7 
 10 
4.4
 20 
1.49
 11 
4.4
 21 
1.48
 0 
LINE
 8 
0
 62 
 7 
 10 
4.4
 20 
1.48
 11 
4.39
 21 
1.47
 0 
LINE
 8 
0
 62 
 7 
 10 
4.39
 20 
1.47
 11 
4.37
 21 
1.47
 0 
LINE
 8 
0
 62 
 7 
 10 
4.37
 20 
1.47
 11 
4.36
 21 
1.46
 0 
LINE
 8 
0
 62 
 7 
 10 
4.36
 20 
1.46
 11 
4.36
 21 
1.44
 0 
LINE
 8 
0
 62 
 7 
 10 
4.36
 20 
1.44
 11 
4.4
 21 
1.44
 0 
LINE
 8 
0
 62 
 7 
 10 
4.42
 20 
1.45
 11 
4.42
 21 
1.49
 0 
LINE
 8 
0
 62 
 7 
 10 
4.42
 20 
1.49
 11 
4.43
 21 
1.5
 0 
LINE
 8 
0
 62 
 7 
 10 
4.43
 20 
1.5
 11 
4.45
 21 
1.5
 0 
LINE
 8 
0
 62 
 7 
 10 
4.45
 20 
1.5
 11 
4.46
 21 
1.49
 0 
LINE
 8 
0
 62 
 7 
 10 
4.46
 20 
1.49
 11 
4.46
 21 
1.45
 0 
LINE
 8 
0
 62 
 7 
 10 
4.46
 20 
1.45
 11 
4.45
 21 
1.44
 0 
LINE
 8 
0
 62 
 7 
 10 
4.45
 20 
1.44
 11 
4.43
 21 
1.44
 0 
LINE
 8 
0
 62 
 7 
 10 
4.43
 20 
1.44
 11 
4.42
 21 
1.45
 0 
LINE
 8 
0
 62 
 7 
 10 
4.42
 20 
1.45
 11 
4.46
 21 
1.49
 0 
LINE
 8 
0
 62 
 7 
 10 
4.48
 20 
1.47
 11 
4.52
 21 
1.47
 0 
LINE
 8 
0
 62 
 7 
 10 
4.55
 20 
1.49
 11 
4.56
 21 
1.5
 0 
LINE
 8 
0
 62 
 7 
 10 
4.56
 20 
1.5
 11 
4.56
 21 
1.44
 0 
LINE
 8 
0
 62 
 7 
 10 
4.55
 20 
1.44
 11 
4.57
 21 
1.44
 0 
LINE
 8 
0
 62 
 7 
 10 
4.6
 20 
1.45
 11 
4.6
 21 
1.49
 0 
LINE
 8 
0
 62 
 7 
 10 
4.6
 20 
1.49
 11 
4.61
 21 
1.5
 0 
LINE
 8 
0
 62 
 7 
 10 
4.61
 20 
1.5
 11 
4.63
 21 
1.5
 0 
LINE
 8 
0
 62 
 7 
 10 
4.63
 20 
1.5
 11 
4.64
 21 
1.49
 0 
LINE
 8 
0
 62 
 7 
 10 
4.64
 20 
1.49
 11 
4.64
 21 
1.45
 0 
LINE
 8 
0
 62 
 7 
 10 
4.64
 20 
1.45
 11 
4.63
 21 
1.44
 0 
LINE
 8 
0
 62 
 7 
 10 
4.63
 20 
1.44
 11 
4.61
 21 
1.44
 0 
LINE
 8 
0
 62 
 7 
 10 
4.61
 20 
1.44
 11 
4.6
 21 
1.45
 0 
LINE
 8 
0
 62 
 7 
 10 
4.6
 20 
1.45
 11 
4.64
 21 
1.49
 0 
LINE
 8 
0
 62 
 7 
 10 
4.66
 20 
1.45
 11 
4.66
 21 
1.49
 0 
LINE
 8 
0
 62 
 7 
 10 
4.66
 20 
1.49
 11 
4.67
 21 
1.5
 0 
LINE
 8 
0
 62 
 7 
 10 
4.67
 20 
1.5
 11 
4.69
 21 
1.5
 0 
LINE
 8 
0
 62 
 7 
 10 
4.69
 20 
1.5
 11 
4.7
 21 
1.49
 0 
LINE
 8 
0
 62 
 7 
 10 
4.7
 20 
1.49
 11 
4.7
 21 
1.45
 0 
LINE
 8 
0
 62 
 7 
 10 
4.7
 20 
1.45
 11 
4.69
 21 
1.44
 0 
LINE
 8 
0
 62 
 7 
 10 
4.69
 20 
1.44
 11 
4.67
 21 
1.44
 0 
LINE
 8 
0
 62 
 7 
 10 
4.67
 20 
1.44
 11 
4.66
 21 
1.45
 0 
LINE
 8 
0
 62 
 7 
 10 
4.66
 20 
1.45
 11 
4.7
 21 
1.49
 0 
LINE
 8 
0
 62 
 7 
 10 
4.72
 20 
1.49
 11 
4.73
 21 
1.5
 0 
LINE
 8 
0
 62 
 7 
 10 
4.73
 20 
1.5
 11 
4.75
 21 
1.5
 0 
LINE
 8 
0
 62 
 7 
 10 
4.75
 20 
1.5
 11 
4.76
 21 
1.49
 0 
LINE
 8 
0
 62 
 7 
 10 
4.76
 20 
1.49
 11 
4.76
 21 
1.48
 0 
LINE
 8 
0
 62 
 7 
 10 
4.76
 20 
1.48
 11 
4.75
 21 
1.47
 0 
LINE
 8 
0
 62 
 7 
 10 
4.75
 20 
1.47
 11 
4.73
 21 
1.47
 0 
LINE
 8 
0
 62 
 7 
 10 
4.73
 20 
1.47
 11 
4.72
 21 
1.46
 0 
LINE
 8 
0
 62 
 7 
 10 
4.72
 20 
1.46
 11 
4.72
 21 
1.44
 0 
LINE
 8 
0
 62 
 7 
 10 
4.72
 20 
1.44
 11 
4.76
 21 
1.44
 0 
LINE
 8 
0
 62 
 7 
 10 
4.78
 20 
1.47
 11 
4.82
 21 
1.47
 0 
LINE
 8 
0
 62 
 7 
 10 
4.84
 20 
1.45
 11 
4.84
 21 
1.49
 0 
LINE
 8 
0
 62 
 7 
 10 
4.84
 20 
1.49
 11 
4.85
 21 
1.5
 0 
LINE
 8 
0
 62 
 7 
 10 
4.85
 20 
1.5
 11 
4.87
 21 
1.5
 0 
LINE
 8 
0
 62 
 7 
 10 
4.87
 20 
1.5
 11 
4.88
 21 
1.49
 0 
LINE
 8 
0
 62 
 7 
 10 
4.88
 20 
1.49
 11 
4.88
 21 
1.45
 0 
LINE
 8 
0
 62 
 7 
 10 
4.88
 20 
1.45
 11 
4.87
 21 
1.44
 0 
LINE
 8 
0
 62 
 7 
 10 
4.87
 20 
1.44
 11 
4.85
 21 
1.44
 0 
LINE
 8 
0
 62 
 7 
 10 
4.85
 20 
1.44
 11 
4.84
 21 
1.45
 0 
LINE
 8 
0
 62 
 7 
 10 
4.84
 20 
1.45
 11 
4.88
 21 
1.49
 0 
LINE
 8 
0
 62 
 7 
 10 
4.9
 20 
1.45
 11 
4.9
 21 
1.49
 0 
LINE
 8 
0
 62 
 7 
 10 
4.9
 20 
1.49
 11 
4.91
 21 
1.5
 0 
LINE
 8 
0
 62 
 7 
 10 
4.91
 20 
1.5
 11 
4.93
 21 
1.5
 0 
LINE
 8 
0
 62 
 7 
 10 
4.93
 20 
1.5
 11 
4.94
 21 
1.49
 0 
LINE
 8 
0
 62 
 7 
 10 
4.94
 20 
1.49
 11 
4.94
 21 
1.45
 0 
LINE
 8 
0
 62 
 7 
 10 
4.94
 20 
1.45
 11 
4.93
 21 
1.44
 0 
LINE
 8 
0
 62 
 7 
 10 
4.93
 20 
1.44
 11 
4.91
 21 
1.44
 0 
LINE
 8 
0
 62 
 7 
 10 
4.91
 20 
1.44
 11 
4.9
 21 
1.45
 0 
LINE
 8 
0
 62 
 7 
 10 
4.9
 20 
1.45
 11 
4.94
 21 
1.49
 0 
LINE
 8 
0
 62 
 7 
 10 
5.02
 20 
1.44
 11 
5.02
 21 
1.5
 0 
LINE
 8 
0
 62 
 7 
 10 
5.02
 20 
1.5
 11 
5.05
 21 
1.5
 0 
LINE
 8 
0
 62 
 7 
 10 
5.05
 20 
1.5
 11 
5.06
 21 
1.49
 0 
LINE
 8 
0
 62 
 7 
 10 
5.06
 20 
1.49
 11 
5.06
 21 
1.48
 0 
LINE
 8 
0
 62 
 7 
 10 
5.06
 20 
1.48
 11 
5.05
 21 
1.47
 0 
LINE
 8 
0
 62 
 7 
 10 
5.05
 20 
1.47
 11 
5.02
 21 
1.47
 0 
LINE
 8 
0
 62 
 7 
 10 
5.03
 20 
1.47
 11 
5.06
 21 
1.44
 0 
LINE
 8 
0
 62 
 7 
 10 
5.08
 20 
1.46
 11 
5.12
 21 
1.46
 0 
LINE
 8 
0
 62 
 7 
 10 
5.12
 20 
1.46
 11 
5.12
 21 
1.47
 0 
LINE
 8 
0
 62 
 7 
 10 
5.12
 20 
1.47
 11 
5.11
 21 
1.48
 0 
LINE
 8 
0
 62 
 7 
 10 
5.11
 20 
1.48
 11 
5.09
 21 
1.48
 0 
LINE
 8 
0
 62 
 7 
 10 
5.09
 20 
1.48
 11 
5.08
 21 
1.47
 0 
LINE
 8 
0
 62 
 7 
 10 
5.08
 20 
1.47
 11 
5.08
 21 
1.45
 0 
LINE
 8 
0
 62 
 7 
 10 
5.08
 20 
1.45
 11 
5.09
 21 
1.44
 0 
LINE
 8 
0
 62 
 7 
 10 
5.09
 20 
1.44
 11 
5.11
 21 
1.44
 0 
LINE
 8 
0
 62 
 7 
 10 
5.14
 20 
1.48
 11 
5.14
 21 
1.46
 0 
LINE
 8 
0
 62 
 7 
 10 
5.14
 20 
1.46
 11 
5.16
 21 
1.44
 0 
LINE
 8 
0
 62 
 7 
 10 
5.16
 20 
1.44
 11 
5.18
 21 
1.46
 0 
LINE
 8 
0
 62 
 7 
 10 
5.18
 20 
1.46
 11 
5.18
 21 
1.48
 0 
LINE
 8 
0
 62 
 7 
 10 
5.26
 20 
1.44
 11 
5.26
 21 
1.48
 0 
LINE
 8 
0
 62 
 7 
 10 
5.26
 20 
1.48
 11 
5.28
 21 
1.5
 0 
LINE
 8 
0
 62 
 7 
 10 
5.28
 20 
1.5
 11 
5.3
 21 
1.48
 0 
LINE
 8 
0
 62 
 7 
 10 
5.3
 20 
1.48
 11 
5.3
 21 
1.44
 0 
LINE
 8 
0
 62 
 7 
 10 
5.26
 20 
1.46
 11 
5.3
 21 
1.46
 0 
LINE
 8 
0
 62 
 7 
 10 
5.34
 20 
1.44
 11 
5.33
 21 
1.44
 0 
LINE
 8 
0
 62 
 7 
 10 
5.33
 20 
1.44
 11 
5.33
 21 
1.45
 0 
LINE
 8 
0
 62 
 7 
 10 
5.33
 20 
1.45
 11 
5.34
 21 
1.45
 0 
LINE
 8 
0
 62 
 7 
 10 
5.34
 20 
1.45
 11 
5.34
 21 
1.44
 0 
LINE
 8 
0
 62 
 7 
 10 
5.38
 20 
1.45
 11 
5.38
 21 
1.49
 0 
LINE
 8 
0
 62 
 7 
 10 
5.38
 20 
1.49
 11 
5.39
 21 
1.5
 0 
LINE
 8 
0
 62 
 7 
 10 
5.39
 20 
1.5
 11 
5.41
 21 
1.5
 0 
LINE
 8 
0
 62 
 7 
 10 
5.41
 20 
1.5
 11 
5.42
 21 
1.49
 0 
LINE
 8 
0
 62 
 7 
 10 
5.42
 20 
1.49
 11 
5.42
 21 
1.45
 0 
LINE
 8 
0
 62 
 7 
 10 
5.42
 20 
1.45
 11 
5.41
 21 
1.44
 0 
LINE
 8 
0
 62 
 7 
 10 
5.41
 20 
1.44
 11 
5.39
 21 
1.44
 0 
LINE
 8 
0
 62 
 7 
 10 
5.39
 20 
1.44
 11 
5.38
 21 
1.45
 0 
LINE
 8 
0
 62 
 7 
 10 
5.38
 20 
1.45
 11 
5.42
 21 
1.49
 0 
LINE
 8 
0
 62 
 7 
 10 
3.008
 20 
0.517
 11 
3.0
 21 
0.525
 0 
LINE
 8 
0
 62 
 7 
 10 
3.0
 20 
0.525
 11 
2.983
 21 
0.525
 0 
LINE
 8 
0
 62 
 7 
 10 
2.983
 20 
0.525
 11 
2.975
 21 
0.517
 0 
LINE
 8 
0
 62 
 7 
 10 
2.975
 20 
0.517
 11 
2.975
 21 
0.508
 0 
LINE
 8 
0
 62 
 7 
 10 
2.975
 20 
0.508
 11 
2.983
 21 
0.5
 0 
LINE
 8 
0
 62 
 7 
 10 
2.983
 20 
0.5
 11 
3.0
 21 
0.5
 0 
LINE
 8 
0
 62 
 7 
 10 
3.0
 20 
0.5
 11 
3.008
 21 
0.492
 0 
LINE
 8 
0
 62 
 7 
 10 
3.008
 20 
0.492
 11 
3.008
 21 
0.483
 0 
LINE
 8 
0
 62 
 7 
 10 
3.008
 20 
0.483
 11 
3.0
 21 
0.475
 0 
LINE
 8 
0
 62 
 7 
 10 
3.0
 20 
0.475
 11 
2.983
 21 
0.475
 0 
LINE
 8 
0
 62 
 7 
 10 
2.983
 20 
0.475
 11 
2.975
 21 
0.483
 0 
LINE
 8 
0
 62 
 7 
 10 
2.975
 20 
0.375
 11 
2.975
 21 
0.425
 0 
LINE
 8 
0
 62 
 7 
 10 
2.975
 20 
0.425
 11 
3.0
 21 
0.425
 0 
LINE
 8 
0
 62 
 7 
 10 
3.0
 20 
0.425
 11 
3.008
 21 
0.417
 0 
LINE
 8 
0
 62 
 7 
 10 
3.008
 20 
0.417
 11 
3.008
 21 
0.408
 0 
LINE
 8 
0
 62 
 7 
 10 
3.008
 20 
0.408
 11 
3.0
 21 
0.4
 0 
LINE
 8 
0
 62 
 7 
 10 
3.0
 20 
0.4
 11 
2.975
 21 
0.4
 0 
LINE
 8 
0
 62 
 7 
 10 
2.983
 20 
0.4
 11 
3.008
 21 
0.375
 0 
LINE
 8 
0
 62 
 7 
 10 
3.008
 20 
0.317
 11 
3.0
 21 
0.325
 0 
LINE
 8 
0
 62 
 7 
 10 
3.0
 20 
0.325
 11 
2.983
 21 
0.325
 0 
LINE
 8 
0
 62 
 7 
 10 
2.983
 20 
0.325
 11 
2.975
 21 
0.317
 0 
LINE
 8 
0
 62 
 7 
 10 
2.975
 20 
0.317
 11 
2.975
 21 
0.283
 0 
LINE
 8 
0
 62 
 7 
 10 
2.975
 20 
0.283
 11 
2.983
 21 
0.275
 0 
LINE
 8 
0
 62 
 7 
 10 
2.983
 20 
0.275
 11 
3.0
 21 
0.275
 0 
LINE
 8 
0
 62 
 7 
 10 
3.0
 20 
0.275
 11 
3.008
 21 
0.283
 0 
LINE
 8 
0
 62 
 7 
 10 
3.133
 20 
0.517
 11 
3.125
 21 
0.525
 0 
LINE
 8 
0
 62 
 7 
 10 
3.125
 20 
0.525
 11 
3.108
 21 
0.525
 0 
LINE
 8 
0
 62 
 7 
 10 
3.108
 20 
0.525
 11 
3.1
 21 
0.517
 0 
LINE
 8 
0
 62 
 7 
 10 
3.1
 20 
0.517
 11 
3.1
 21 
0.508
 0 
LINE
 8 
0
 62 
 7 
 10 
3.1
 20 
0.508
 11 
3.108
 21 
0.5
 0 
LINE
 8 
0
 62 
 7 
 10 
3.108
 20 
0.5
 11 
3.125
 21 
0.5
 0 
LINE
 8 
0
 62 
 7 
 10 
3.125
 20 
0.5
 11 
3.133
 21 
0.492
 0 
LINE
 8 
0
 62 
 7 
 10 
3.133
 20 
0.492
 11 
3.133
 21 
0.483
 0 
LINE
 8 
0
 62 
 7 
 10 
3.133
 20 
0.483
 11 
3.125
 21 
0.475
 0 
LINE
 8 
0
 62 
 7 
 10 
3.125
 20 
0.475
 11 
3.108
 21 
0.475
 0 
LINE
 8 
0
 62 
 7 
 10 
3.108
 20 
0.475
 11 
3.1
 21 
0.483
 0 
LINE
 8 
0
 62 
 7 
 10 
3.1
 20 
0.375
 11 
3.1
 21 
0.425
 0 
LINE
 8 
0
 62 
 7 
 10 
3.1
 20 
0.425
 11 
3.125
 21 
0.425
 0 
LINE
 8 
0
 62 
 7 
 10 
3.125
 20 
0.425
 11 
3.133
 21 
0.417
 0 
LINE
 8 
0
 62 
 7 
 10 
3.133
 20 
0.417
 11 
3.133
 21 
0.408
 0 
LINE
 8 
0
 62 
 7 
 10 
3.133
 20 
0.408
 11 
3.125
 21 
0.4
 0 
LINE
 8 
0
 62 
 7 
 10 
3.125
 20 
0.4
 11 
3.1
 21 
0.4
 0 
LINE
 8 
0
 62 
 7 
 10 
3.108
 20 
0.4
 11 
3.133
 21 
0.375
 0 
LINE
 8 
0
 62 
 7 
 10 
3.133
 20 
0.317
 11 
3.125
 21 
0.325
 0 
LINE
 8 
0
 62 
 7 
 10 
3.125
 20 
0.325
 11 
3.108
 21 
0.325
 0 
LINE
 8 
0
 62 
 7 
 10 
3.108
 20 
0.325
 11 
3.1
 21 
0.317
 0 
LINE
 8 
0
 62 
 7 
 10 
3.1
 20 
0.317
 11 
3.1
 21 
0.283
 0 
LINE
 8 
0
 62 
 7 
 10 
3.1
 20 
0.283
 11 
3.108
 21 
0.275
 0 
LINE
 8 
0
 62 
 7 
 10 
3.108
 20 
0.275
 11 
3.125
 21 
0.275
 0 
LINE
 8 
0
 62 
 7 
 10 
3.125
 20 
0.275
 11 
3.133
 21 
0.283
 0 
LINE
 8 
0
 62 
 7 
 10 
2.325
 20 
0.175
 11 
2.325
 21 
0.225
 0 
LINE
 8 
0
 62 
 7 
 10 
2.325
 20 
0.225
 11 
2.35
 21 
0.225
 0 
LINE
 8 
0
 62 
 7 
 10 
2.35
 20 
0.225
 11 
2.358
 21 
0.217
 0 
LINE
 8 
0
 62 
 7 
 10 
2.358
 20 
0.217
 11 
2.358
 21 
0.208
 0 
LINE
 8 
0
 62 
 7 
 10 
2.358
 20 
0.208
 11 
2.35
 21 
0.2
 0 
LINE
 8 
0
 62 
 7 
 10 
2.35
 20 
0.2
 11 
2.325
 21 
0.2
 0 
LINE
 8 
0
 62 
 7 
 10 
2.333
 20 
0.2
 11 
2.358
 21 
0.175
 0 
LINE
 8 
0
 62 
 7 
 10 
2.375
 20 
0.192
 11 
2.408
 21 
0.192
 0 
LINE
 8 
0
 62 
 7 
 10 
2.408
 20 
0.192
 11 
2.408
 21 
0.2
 0 
LINE
 8 
0
 62 
 7 
 10 
2.408
 20 
0.2
 11 
2.4
 21 
0.208
 0 
LINE
 8 
0
 62 
 7 
 10 
2.4
 20 
0.208
 11 
2.383
 21 
0.208
 0 
LINE
 8 
0
 62 
 7 
 10 
2.383
 20 
0.208
 11 
2.375
 21 
0.2
 0 
LINE
 8 
0
 62 
 7 
 10 
2.375
 20 
0.2
 11 
2.375
 21 
0.183
 0 
LINE
 8 
0
 62 
 7 
 10 
2.375
 20 
0.183
 11 
2.383
 21 
0.175
 0 
LINE
 8 
0
 62 
 7 
 10 
2.383
 20 
0.175
 11 
2.4
 21 
0.175
 0 
LINE
 8 
0
 62 
 7 
 10 
2.433
 20 
0.225
 11 
2.442
 21 
0.225
 0 
LINE
 8 
0
 62 
 7 
 10 
2.442
 20 
0.225
 11 
2.442
 21 
0.175
 0 
LINE
 8 
0
 62 
 7 
 10 
2.433
 20 
0.175
 11 
2.45
 21 
0.175
 0 
LINE
 8 
0
 62 
 7 
 10 
2.483
 20 
0.208
 11 
2.5
 21 
0.208
 0 
LINE
 8 
0
 62 
 7 
 10 
2.5
 20 
0.208
 11 
2.508
 21 
0.2
 0 
LINE
 8 
0
 62 
 7 
 10 
2.508
 20 
0.2
 11 
2.508
 21 
0.175
 0 
LINE
 8 
0
 62 
 7 
 10 
2.508
 20 
0.192
 11 
2.483
 21 
0.192
 0 
LINE
 8 
0
 62 
 7 
 10 
2.483
 20 
0.192
 11 
2.475
 21 
0.183
 0 
LINE
 8 
0
 62 
 7 
 10 
2.475
 20 
0.183
 11 
2.483
 21 
0.175
 0 
LINE
 8 
0
 62 
 7 
 10 
2.483
 20 
0.175
 11 
2.5
 21 
0.175
 0 
LINE
 8 
0
 62 
 7 
 10 
2.5
 20 
0.175
 11 
2.508
 21 
0.183
 0 
LINE
 8 
0
 62 
 7 
 10 
2.525
 20 
0.208
 11 
2.525
 21 
0.183
 0 
LINE
 8 
0
 62 
 7 
 10 
2.525
 20 
0.183
 11 
2.533
 21 
0.175
 0 
LINE
 8 
0
 62 
 7 
 10 
2.533
 20 
0.175
 11 
2.542
 21 
0.175
 0 
LINE
 8 
0
 62 
 7 
 10 
2.542
 20 
0.175
 11 
2.558
 21 
0.192
 0 
LINE
 8 
0
 62 
 7 
 10 
2.558
 20 
0.208
 11 
2.558
 21 
0.167
 0 
LINE
 8 
0
 62 
 7 
 10 
2.558
 20 
0.167
 11 
2.55
 21 
0.158
 0 
LINE
 8 
0
 62 
 7 
 10 
2.55
 20 
0.158
 11 
2.525
 21 
0.158
 0 
LINE
 8 
0
 62 
 7 
 10 
2.65
 20 
0.175
 11 
2.683
 21 
0.175
 0 
LINE
 8 
0
 62 
 7 
 10 
2.708
 20 
0.2
 11 
2.733
 21 
0.175
 0 
LINE
 8 
0
 62 
 7 
 10 
2.733
 20 
0.175
 11 
2.708
 21 
0.15
 0 
LINE
 8 
0
 62 
 7 
 10 
1.533
 20 
0.467
 11 
1.525
 21 
0.475
 0 
LINE
 8 
0
 62 
 7 
 10 
1.525
 20 
0.475
 11 
1.508
 21 
0.475
 0 
LINE
 8 
0
 62 
 7 
 10 
1.508
 20 
0.475
 11 
1.5
 21 
0.467
 0 
LINE
 8 
0
 62 
 7 
 10 
1.5
 20 
0.467
 11 
1.5
 21 
0.433
 0 
LINE
 8 
0
 62 
 7 
 10 
1.5
 20 
0.433
 11 
1.508
 21 
0.425
 0 
LINE
 8 
0
 62 
 7 
 10 
1.508
 20 
0.425
 11 
1.533
 21 
0.425
 0 
LINE
 8 
0
 62 
 7 
 10 
1.533
 20 
0.425
 11 
1.533
 21 
0.442
 0 
LINE
 8 
0
 62 
 7 
 10 
1.533
 20 
0.442
 11 
1.525
 21 
0.442
 0 
LINE
 8 
0
 62 
 7 
 10 
1.55
 20 
0.425
 11 
1.55
 21 
0.475
 0 
LINE
 8 
0
 62 
 7 
 10 
1.55
 20 
0.475
 11 
1.583
 21 
0.442
 0 
LINE
 8 
0
 62 
 7 
 10 
1.583
 20 
0.475
 11 
1.583
 21 
0.425
 0 
LINE
 8 
0
 62 
 7 
 10 
1.6
 20 
0.475
 11 
1.625
 21 
0.475
 0 
LINE
 8 
0
 62 
 7 
 10 
1.625
 20 
0.475
 11 
1.633
 21 
0.467
 0 
LINE
 8 
0
 62 
 7 
 10 
1.633
 20 
0.467
 11 
1.633
 21 
0.433
 0 
LINE
 8 
0
 62 
 7 
 10 
1.633
 20 
0.433
 11 
1.625
 21 
0.425
 0 
LINE
 8 
0
 62 
 7 
 10 
1.625
 20 
0.425
 11 
1.6
 21 
0.425
 0 
LINE
 8 
0
 62 
 7 
 10 
1.608
 20 
0.475
 11 
1.608
 21 
0.425
 0 
LINE
 8 
0
 62 
 7 
 10 
0.183
 20 
0.45
 11 
0.2
 21 
0.45
 0 
LINE
 8 
0
 62 
 7 
 10 
0.183
 20 
0.4
 11 
0.2
 21 
0.4
 0 
LINE
 8 
0
 62 
 7 
 10 
0.192
 20 
0.45
 11 
0.192
 21 
0.4
 0 
LINE
 8 
0
 62 
 7 
 10 
0.225
 20 
0.4
 11 
0.225
 21 
0.45
 0 
LINE
 8 
0
 62 
 7 
 10 
0.225
 20 
0.45
 11 
0.258
 21 
0.417
 0 
LINE
 8 
0
 62 
 7 
 10 
0.258
 20 
0.45
 11 
0.258
 21 
0.4
 0 
LINE
 8 
0
 62 
 7 
 10 
6.133
 20 
0.442
 11 
6.125
 21 
0.45
 0 
LINE
 8 
0
 62 
 7 
 10 
6.125
 20 
0.45
 11 
6.108
 21 
0.45
 0 
LINE
 8 
0
 62 
 7 
 10 
6.108
 20 
0.45
 11 
6.1
 21 
0.442
 0 
LINE
 8 
0
 62 
 7 
 10 
6.1
 20 
0.442
 11 
6.1
 21 
0.408
 0 
LINE
 8 
0
 62 
 7 
 10 
6.1
 20 
0.408
 11 
6.108
 21 
0.4
 0 
LINE
 8 
0
 62 
 7 
 10 
6.108
 20 
0.4
 11 
6.125
 21 
0.4
 0 
LINE
 8 
0
 62 
 7 
 10 
6.125
 20 
0.4
 11 
6.133
 21 
0.408
 0 
LINE
 8 
0
 62 
 7 
 10 
6.133
 20 
0.408
 11 
6.133
 21 
0.442
 0 
LINE
 8 
0
 62 
 7 
 10 
6.15
 20 
0.45
 11 
6.15
 21 
0.408
 0 
LINE
 8 
0
 62 
 7 
 10 
6.15
 20 
0.408
 11 
6.158
 21 
0.4
 0 
LINE
 8 
0
 62 
 7 
 10 
6.158
 20 
0.4
 11 
6.175
 21 
0.4
 0 
LINE
 8 
0
 62 
 7 
 10 
6.175
 20 
0.4
 11 
6.183
 21 
0.408
 0 
LINE
 8 
0
 62 
 7 
 10 
6.183
 20 
0.408
 11 
6.183
 21 
0.45
 0 
LINE
 8 
0
 62 
 7 
 10 
6.2
 20 
0.45
 11 
6.233
 21 
0.45
 0 
LINE
 8 
0
 62 
 7 
 10 
6.217
 20 
0.45
 11 
6.217
 21 
0.4
 0 
LINE
 8 
0
 62 
 7 
 10 
3.408
 20 
0.517
 11 
3.4
 21 
0.525
 0 
LINE
 8 
0
 62 
 7 
 10 
3.4
 20 
0.525
 11 
3.383
 21 
0.525
 0 
LINE
 8 
0
 62 
 7 
 10 
3.383
 20 
0.525
 11 
3.375
 21 
0.517
 0 
LINE
 8 
0
 62 
 7 
 10 
3.375
 20 
0.517
 11 
3.375
 21 
0.508
 0 
LINE
 8 
0
 62 
 7 
 10 
3.375
 20 
0.508
 11 
3.383
 21 
0.5
 0 
LINE
 8 
0
 62 
 7 
 10 
3.383
 20 
0.5
 11 
3.4
 21 
0.5
 0 
LINE
 8 
0
 62 
 7 
 10 
3.4
 20 
0.5
 11 
3.408
 21 
0.492
 0 
LINE
 8 
0
 62 
 7 
 10 
3.408
 20 
0.492
 11 
3.408
 21 
0.483
 0 
LINE
 8 
0
 62 
 7 
 10 
3.408
 20 
0.483
 11 
3.4
 21 
0.475
 0 
LINE
 8 
0
 62 
 7 
 10 
3.4
 20 
0.475
 11 
3.383
 21 
0.475
 0 
LINE
 8 
0
 62 
 7 
 10 
3.383
 20 
0.475
 11 
3.375
 21 
0.483
 0 
LINE
 8 
0
 62 
 7 
 10 
3.375
 20 
0.375
 11 
3.375
 21 
0.425
 0 
LINE
 8 
0
 62 
 7 
 10 
3.375
 20 
0.425
 11 
3.4
 21 
0.425
 0 
LINE
 8 
0
 62 
 7 
 10 
3.4
 20 
0.425
 11 
3.408
 21 
0.417
 0 
LINE
 8 
0
 62 
 7 
 10 
3.408
 20 
0.417
 11 
3.408
 21 
0.408
 0 
LINE
 8 
0
 62 
 7 
 10 
3.408
 20 
0.408
 11 
3.4
 21 
0.4
 0 
LINE
 8 
0
 62 
 7 
 10 
3.4
 20 
0.4
 11 
3.375
 21 
0.4
 0 
LINE
 8 
0
 62 
 7 
 10 
3.383
 20 
0.4
 11 
3.408
 21 
0.375
 0 
LINE
 8 
0
 62 
 7 
 10 
3.408
 20 
0.317
 11 
3.4
 21 
0.325
 0 
LINE
 8 
0
 62 
 7 
 10 
3.4
 20 
0.325
 11 
3.383
 21 
0.325
 0 
LINE
 8 
0
 62 
 7 
 10 
3.383
 20 
0.325
 11 
3.375
 21 
0.317
 0 
LINE
 8 
0
 62 
 7 
 10 
3.375
 20 
0.317
 11 
3.375
 21 
0.283
 0 
LINE
 8 
0
 62 
 7 
 10 
3.375
 20 
0.283
 11 
3.383
 21 
0.275
 0 
LINE
 8 
0
 62 
 7 
 10 
3.383
 20 
0.275
 11 
3.4
 21 
0.275
 0 
LINE
 8 
0
 62 
 7 
 10 
3.4
 20 
0.275
 11 
3.408
 21 
0.283
 0 
LINE
 8 
0
 62 
 7 
 10 
3.533
 20 
0.517
 11 
3.525
 21 
0.525
 0 
LINE
 8 
0
 62 
 7 
 10 
3.525
 20 
0.525
 11 
3.508
 21 
0.525
 0 
LINE
 8 
0
 62 
 7 
 10 
3.508
 20 
0.525
 11 
3.5
 21 
0.517
 0 
LINE
 8 
0
 62 
 7 
 10 
3.5
 20 
0.517
 11 
3.5
 21 
0.508
 0 
LINE
 8 
0
 62 
 7 
 10 
3.5
 20 
0.508
 11 
3.508
 21 
0.5
 0 
LINE
 8 
0
 62 
 7 
 10 
3.508
 20 
0.5
 11 
3.525
 21 
0.5
 0 
LINE
 8 
0
 62 
 7 
 10 
3.525
 20 
0.5
 11 
3.533
 21 
0.492
 0 
LINE
 8 
0
 62 
 7 
 10 
3.533
 20 
0.492
 11 
3.533
 21 
0.483
 0 
LINE
 8 
0
 62 
 7 
 10 
3.533
 20 
0.483
 11 
3.525
 21 
0.475
 0 
LINE
 8 
0
 62 
 7 
 10 
3.525
 20 
0.475
 11 
3.508
 21 
0.475
 0 
LINE
 8 
0
 62 
 7 
 10 
3.508
 20 
0.475
 11 
3.5
 21 
0.483
 0 
LINE
 8 
0
 62 
 7 
 10 
3.5
 20 
0.375
 11 
3.5
 21 
0.425
 0 
LINE
 8 
0
 62 
 7 
 10 
3.5
 20 
0.425
 11 
3.525
 21 
0.425
 0 
LINE
 8 
0
 62 
 7 
 10 
3.525
 20 
0.425
 11 
3.533
 21 
0.417
 0 
LINE
 8 
0
 62 
 7 
 10 
3.533
 20 
0.417
 11 
3.533
 21 
0.408
 0 
LINE
 8 
0
 62 
 7 
 10 
3.533
 20 
0.408
 11 
3.525
 21 
0.4
 0 
LINE
 8 
0
 62 
 7 
 10 
3.525
 20 
0.4
 11 
3.5
 21 
0.4
 0 
LINE
 8 
0
 62 
 7 
 10 
3.508
 20 
0.4
 11 
3.533
 21 
0.375
 0 
LINE
 8 
0
 62 
 7 
 10 
3.533
 20 
0.317
 11 
3.525
 21 
0.325
 0 
LINE
 8 
0
 62 
 7 
 10 
3.525
 20 
0.325
 11 
3.508
 21 
0.325
 0 
LINE
 8 
0
 62 
 7 
 10 
3.508
 20 
0.325
 11 
3.5
 21 
0.317
 0 
LINE
 8 
0
 62 
 7 
 10 
3.5
 20 
0.317
 11 
3.5
 21 
0.283
 0 
LINE
 8 
0
 62 
 7 
 10 
3.5
 20 
0.283
 11 
3.508
 21 
0.275
 0 
LINE
 8 
0
 62 
 7 
 10 
3.508
 20 
0.275
 11 
3.525
 21 
0.275
 0 
LINE
 8 
0
 62 
 7 
 10 
3.525
 20 
0.275
 11 
3.533
 21 
0.283
 0 
LINE
 8 
0
 62 
 7 
 10 
3.808
 20 
0.517
 11 
3.8
 21 
0.525
 0 
LINE
 8 
0
 62 
 7 
 10 
3.8
 20 
0.525
 11 
3.783
 21 
0.525
 0 
LINE
 8 
0
 62 
 7 
 10 
3.783
 20 
0.525
 11 
3.775
 21 
0.517
 0 
LINE
 8 
0
 62 
 7 
 10 
3.775
 20 
0.517
 11 
3.775
 21 
0.508
 0 
LINE
 8 
0
 62 
 7 
 10 
3.775
 20 
0.508
 11 
3.783
 21 
0.5
 0 
LINE
 8 
0
 62 
 7 
 10 
3.783
 20 
0.5
 11 
3.8
 21 
0.5
 0 
LINE
 8 
0
 62 
 7 
 10 
3.8
 20 
0.5
 11 
3.808
 21 
0.492
 0 
LINE
 8 
0
 62 
 7 
 10 
3.808
 20 
0.492
 11 
3.808
 21 
0.483
 0 
LINE
 8 
0
 62 
 7 
 10 
3.808
 20 
0.483
 11 
3.8
 21 
0.475
 0 
LINE
 8 
0
 62 
 7 
 10 
3.8
 20 
0.475
 11 
3.783
 21 
0.475
 0 
LINE
 8 
0
 62 
 7 
 10 
3.783
 20 
0.475
 11 
3.775
 21 
0.483
 0 
LINE
 8 
0
 62 
 7 
 10 
3.775
 20 
0.375
 11 
3.775
 21 
0.425
 0 
LINE
 8 
0
 62 
 7 
 10 
3.775
 20 
0.425
 11 
3.8
 21 
0.425
 0 
LINE
 8 
0
 62 
 7 
 10 
3.8
 20 
0.425
 11 
3.808
 21 
0.417
 0 
LINE
 8 
0
 62 
 7 
 10 
3.808
 20 
0.417
 11 
3.808
 21 
0.408
 0 
LINE
 8 
0
 62 
 7 
 10 
3.808
 20 
0.408
 11 
3.8
 21 
0.4
 0 
LINE
 8 
0
 62 
 7 
 10 
3.8
 20 
0.4
 11 
3.775
 21 
0.4
 0 
LINE
 8 
0
 62 
 7 
 10 
3.783
 20 
0.4
 11 
3.808
 21 
0.375
 0 
LINE
 8 
0
 62 
 7 
 10 
3.808
 20 
0.317
 11 
3.8
 21 
0.325
 0 
LINE
 8 
0
 62 
 7 
 10 
3.8
 20 
0.325
 11 
3.783
 21 
0.325
 0 
LINE
 8 
0
 62 
 7 
 10 
3.783
 20 
0.325
 11 
3.775
 21 
0.317
 0 
LINE
 8 
0
 62 
 7 
 10 
3.775
 20 
0.317
 11 
3.775
 21 
0.283
 0 
LINE
 8 
0
 62 
 7 
 10 
3.775
 20 
0.283
 11 
3.783
 21 
0.275
 0 
LINE
 8 
0
 62 
 7 
 10 
3.783
 20 
0.275
 11 
3.8
 21 
0.275
 0 
LINE
 8 
0
 62 
 7 
 10 
3.8
 20 
0.275
 11 
3.808
 21 
0.283
 0 
LINE
 8 
0
 62 
 7 
 10 
3.933
 20 
0.517
 11 
3.925
 21 
0.525
 0 
LINE
 8 
0
 62 
 7 
 10 
3.925
 20 
0.525
 11 
3.908
 21 
0.525
 0 
LINE
 8 
0
 62 
 7 
 10 
3.908
 20 
0.525
 11 
3.9
 21 
0.517
 0 
LINE
 8 
0
 62 
 7 
 10 
3.9
 20 
0.517
 11 
3.9
 21 
0.508
 0 
LINE
 8 
0
 62 
 7 
 10 
3.9
 20 
0.508
 11 
3.908
 21 
0.5
 0 
LINE
 8 
0
 62 
 7 
 10 
3.908
 20 
0.5
 11 
3.925
 21 
0.5
 0 
LINE
 8 
0
 62 
 7 
 10 
3.925
 20 
0.5
 11 
3.933
 21 
0.492
 0 
LINE
 8 
0
 62 
 7 
 10 
3.933
 20 
0.492
 11 
3.933
 21 
0.483
 0 
LINE
 8 
0
 62 
 7 
 10 
3.933
 20 
0.483
 11 
3.925
 21 
0.475
 0 
LINE
 8 
0
 62 
 7 
 10 
3.925
 20 
0.475
 11 
3.908
 21 
0.475
 0 
LINE
 8 
0
 62 
 7 
 10 
3.908
 20 
0.475
 11 
3.9
 21 
0.483
 0 
LINE
 8 
0
 62 
 7 
 10 
3.9
 20 
0.375
 11 
3.9
 21 
0.425
 0 
LINE
 8 
0
 62 
 7 
 10 
3.9
 20 
0.425
 11 
3.925
 21 
0.425
 0 
LINE
 8 
0
 62 
 7 
 10 
3.925
 20 
0.425
 11 
3.933
 21 
0.417
 0 
LINE
 8 
0
 62 
 7 
 10 
3.933
 20 
0.417
 11 
3.933
 21 
0.408
 0 
LINE
 8 
0
 62 
 7 
 10 
3.933
 20 
0.408
 11 
3.925
 21 
0.4
 0 
LINE
 8 
0
 62 
 7 
 10 
3.925
 20 
0.4
 11 
3.9
 21 
0.4
 0 
LINE
 8 
0
 62 
 7 
 10 
3.908
 20 
0.4
 11 
3.933
 21 
0.375
 0 
LINE
 8 
0
 62 
 7 
 10 
3.933
 20 
0.317
 11 
3.925
 21 
0.325
 0 
LINE
 8 
0
 62 
 7 
 10 
3.925
 20 
0.325
 11 
3.908
 21 
0.325
 0 
LINE
 8 
0
 62 
 7 
 10 
3.908
 20 
0.325
 11 
3.9
 21 
0.317
 0 
LINE
 8 
0
 62 
 7 
 10 
3.9
 20 
0.317
 11 
3.9
 21 
0.283
 0 
LINE
 8 
0
 62 
 7 
 10 
3.9
 20 
0.283
 11 
3.908
 21 
0.275
 0 
LINE
 8 
0
 62 
 7 
 10 
3.908
 20 
0.275
 11 
3.925
 21 
0.275
 0 
LINE
 8 
0
 62 
 7 
 10 
3.925
 20 
0.275
 11 
3.933
 21 
0.283
 0 
LINE
 8 
0
 62 
 7 
 10 
4.208
 20 
0.517
 11 
4.2
 21 
0.525
 0 
LINE
 8 
0
 62 
 7 
 10 
4.2
 20 
0.525
 11 
4.183
 21 
0.525
 0 
LINE
 8 
0
 62 
 7 
 10 
4.183
 20 
0.525
 11 
4.175
 21 
0.517
 0 
LINE
 8 
0
 62 
 7 
 10 
4.175
 20 
0.517
 11 
4.175
 21 
0.508
 0 
LINE
 8 
0
 62 
 7 
 10 
4.175
 20 
0.508
 11 
4.183
 21 
0.5
 0 
LINE
 8 
0
 62 
 7 
 10 
4.183
 20 
0.5
 11 
4.2
 21 
0.5
 0 
LINE
 8 
0
 62 
 7 
 10 
4.2
 20 
0.5
 11 
4.208
 21 
0.492
 0 
LINE
 8 
0
 62 
 7 
 10 
4.208
 20 
0.492
 11 
4.208
 21 
0.483
 0 
LINE
 8 
0
 62 
 7 
 10 
4.208
 20 
0.483
 11 
4.2
 21 
0.475
 0 
LINE
 8 
0
 62 
 7 
 10 
4.2
 20 
0.475
 11 
4.183
 21 
0.475
 0 
LINE
 8 
0
 62 
 7 
 10 
4.183
 20 
0.475
 11 
4.175
 21 
0.483
 0 
LINE
 8 
0
 62 
 7 
 10 
4.175
 20 
0.375
 11 
4.175
 21 
0.425
 0 
LINE
 8 
0
 62 
 7 
 10 
4.175
 20 
0.425
 11 
4.2
 21 
0.425
 0 
LINE
 8 
0
 62 
 7 
 10 
4.2
 20 
0.425
 11 
4.208
 21 
0.417
 0 
LINE
 8 
0
 62 
 7 
 10 
4.208
 20 
0.417
 11 
4.208
 21 
0.408
 0 
LINE
 8 
0
 62 
 7 
 10 
4.208
 20 
0.408
 11 
4.2
 21 
0.4
 0 
LINE
 8 
0
 62 
 7 
 10 
4.2
 20 
0.4
 11 
4.175
 21 
0.4
 0 
LINE
 8 
0
 62 
 7 
 10 
4.183
 20 
0.4
 11 
4.208
 21 
0.375
 0 
LINE
 8 
0
 62 
 7 
 10 
4.208
 20 
0.317
 11 
4.2
 21 
0.325
 0 
LINE
 8 
0
 62 
 7 
 10 
4.2
 20 
0.325
 11 
4.183
 21 
0.325
 0 
LINE
 8 
0
 62 
 7 
 10 
4.183
 20 
0.325
 11 
4.175
 21 
0.317
 0 
LINE
 8 
0
 62 
 7 
 10 
4.175
 20 
0.317
 11 
4.175
 21 
0.283
 0 
LINE
 8 
0
 62 
 7 
 10 
4.175
 20 
0.283
 11 
4.183
 21 
0.275
 0 
LINE
 8 
0
 62 
 7 
 10 
4.183
 20 
0.275
 11 
4.2
 21 
0.275
 0 
LINE
 8 
0
 62 
 7 
 10 
4.2
 20 
0.275
 11 
4.208
 21 
0.283
 0 
LINE
 8 
0
 62 
 7 
 10 
4.333
 20 
0.517
 11 
4.325
 21 
0.525
 0 
LINE
 8 
0
 62 
 7 
 10 
4.325
 20 
0.525
 11 
4.308
 21 
0.525
 0 
LINE
 8 
0
 62 
 7 
 10 
4.308
 20 
0.525
 11 
4.3
 21 
0.517
 0 
LINE
 8 
0
 62 
 7 
 10 
4.3
 20 
0.517
 11 
4.3
 21 
0.508
 0 
LINE
 8 
0
 62 
 7 
 10 
4.3
 20 
0.508
 11 
4.308
 21 
0.5
 0 
LINE
 8 
0
 62 
 7 
 10 
4.308
 20 
0.5
 11 
4.325
 21 
0.5
 0 
LINE
 8 
0
 62 
 7 
 10 
4.325
 20 
0.5
 11 
4.333
 21 
0.492
 0 
LINE
 8 
0
 62 
 7 
 10 
4.333
 20 
0.492
 11 
4.333
 21 
0.483
 0 
LINE
 8 
0
 62 
 7 
 10 
4.333
 20 
0.483
 11 
4.325
 21 
0.475
 0 
LINE
 8 
0
 62 
 7 
 10 
4.325
 20 
0.475
 11 
4.308
 21 
0.475
 0 
LINE
 8 
0
 62 
 7 
 10 
4.308
 20 
0.475
 11 
4.3
 21 
0.483
 0 
LINE
 8 
0
 62 
 7 
 10 
4.3
 20 
0.375
 11 
4.3
 21 
0.425
 0 
LINE
 8 
0
 62 
 7 
 10 
4.3
 20 
0.425
 11 
4.325
 21 
0.425
 0 
LINE
 8 
0
 62 
 7 
 10 
4.325
 20 
0.425
 11 
4.333
 21 
0.417
 0 
LINE
 8 
0
 62 
 7 
 10 
4.333
 20 
0.417
 11 
4.333
 21 
0.408
 0 
LINE
 8 
0
 62 
 7 
 10 
4.333
 20 
0.408
 11 
4.325
 21 
0.4
 0 
LINE
 8 
0
 62 
 7 
 10 
4.325
 20 
0.4
 11 
4.3
 21 
0.4
 0 
LINE
 8 
0
 62 
 7 
 10 
4.308
 20 
0.4
 11 
4.333
 21 
0.375
 0 
LINE
 8 
0
 62 
 7 
 10 
4.333
 20 
0.317
 11 
4.325
 21 
0.325
 0 
LINE
 8 
0
 62 
 7 
 10 
4.325
 20 
0.325
 11 
4.308
 21 
0.325
 0 
LINE
 8 
0
 62 
 7 
 10 
4.308
 20 
0.325
 11 
4.3
 21 
0.317
 0 
LINE
 8 
0
 62 
 7 
 10 
4.3
 20 
0.317
 11 
4.3
 21 
0.283
 0 
LINE
 8 
0
 62 
 7 
 10 
4.3
 20 
0.283
 11 
4.308
 21 
0.275
 0 
LINE
 8 
0
 62 
 7 
 10 
4.308
 20 
0.275
 11 
4.325
 21 
0.275
 0 
LINE
 8 
0
 62 
 7 
 10 
4.325
 20 
0.275
 11 
4.333
 21 
0.283
 0 
LINE
 8 
0
 62 
 7 
 10 
4.608
 20 
0.517
 11 
4.6
 21 
0.525
 0 
LINE
 8 
0
 62 
 7 
 10 
4.6
 20 
0.525
 11 
4.583
 21 
0.525
 0 
LINE
 8 
0
 62 
 7 
 10 
4.583
 20 
0.525
 11 
4.575
 21 
0.517
 0 
LINE
 8 
0
 62 
 7 
 10 
4.575
 20 
0.517
 11 
4.575
 21 
0.508
 0 
LINE
 8 
0
 62 
 7 
 10 
4.575
 20 
0.508
 11 
4.583
 21 
0.5
 0 
LINE
 8 
0
 62 
 7 
 10 
4.583
 20 
0.5
 11 
4.6
 21 
0.5
 0 
LINE
 8 
0
 62 
 7 
 10 
4.6
 20 
0.5
 11 
4.608
 21 
0.492
 0 
LINE
 8 
0
 62 
 7 
 10 
4.608
 20 
0.492
 11 
4.608
 21 
0.483
 0 
LINE
 8 
0
 62 
 7 
 10 
4.608
 20 
0.483
 11 
4.6
 21 
0.475
 0 
LINE
 8 
0
 62 
 7 
 10 
4.6
 20 
0.475
 11 
4.583
 21 
0.475
 0 
LINE
 8 
0
 62 
 7 
 10 
4.583
 20 
0.475
 11 
4.575
 21 
0.483
 0 
LINE
 8 
0
 62 
 7 
 10 
4.575
 20 
0.375
 11 
4.575
 21 
0.425
 0 
LINE
 8 
0
 62 
 7 
 10 
4.575
 20 
0.425
 11 
4.6
 21 
0.425
 0 
LINE
 8 
0
 62 
 7 
 10 
4.6
 20 
0.425
 11 
4.608
 21 
0.417
 0 
LINE
 8 
0
 62 
 7 
 10 
4.608
 20 
0.417
 11 
4.608
 21 
0.408
 0 
LINE
 8 
0
 62 
 7 
 10 
4.608
 20 
0.408
 11 
4.6
 21 
0.4
 0 
LINE
 8 
0
 62 
 7 
 10 
4.6
 20 
0.4
 11 
4.575
 21 
0.4
 0 
LINE
 8 
0
 62 
 7 
 10 
4.583
 20 
0.4
 11 
4.608
 21 
0.375
 0 
LINE
 8 
0
 62 
 7 
 10 
4.608
 20 
0.317
 11 
4.6
 21 
0.325
 0 
LINE
 8 
0
 62 
 7 
 10 
4.6
 20 
0.325
 11 
4.583
 21 
0.325
 0 
LINE
 8 
0
 62 
 7 
 10 
4.583
 20 
0.325
 11 
4.575
 21 
0.317
 0 
LINE
 8 
0
 62 
 7 
 10 
4.575
 20 
0.317
 11 
4.575
 21 
0.283
 0 
LINE
 8 
0
 62 
 7 
 10 
4.575
 20 
0.283
 11 
4.583
 21 
0.275
 0 
LINE
 8 
0
 62 
 7 
 10 
4.583
 20 
0.275
 11 
4.6
 21 
0.275
 0 
LINE
 8 
0
 62 
 7 
 10 
4.6
 20 
0.275
 11 
4.608
 21 
0.283
 0 
LINE
 8 
0
 62 
 7 
 10 
4.733
 20 
0.517
 11 
4.725
 21 
0.525
 0 
LINE
 8 
0
 62 
 7 
 10 
4.725
 20 
0.525
 11 
4.708
 21 
0.525
 0 
LINE
 8 
0
 62 
 7 
 10 
4.708
 20 
0.525
 11 
4.7
 21 
0.517
 0 
LINE
 8 
0
 62 
 7 
 10 
4.7
 20 
0.517
 11 
4.7
 21 
0.508
 0 
LINE
 8 
0
 62 
 7 
 10 
4.7
 20 
0.508
 11 
4.708
 21 
0.5
 0 
LINE
 8 
0
 62 
 7 
 10 
4.708
 20 
0.5
 11 
4.725
 21 
0.5
 0 
LINE
 8 
0
 62 
 7 
 10 
4.725
 20 
0.5
 11 
4.733
 21 
0.492
 0 
LINE
 8 
0
 62 
 7 
 10 
4.733
 20 
0.492
 11 
4.733
 21 
0.483
 0 
LINE
 8 
0
 62 
 7 
 10 
4.733
 20 
0.483
 11 
4.725
 21 
0.475
 0 
LINE
 8 
0
 62 
 7 
 10 
4.725
 20 
0.475
 11 
4.708
 21 
0.475
 0 
LINE
 8 
0
 62 
 7 
 10 
4.708
 20 
0.475
 11 
4.7
 21 
0.483
 0 
LINE
 8 
0
 62 
 7 
 10 
4.7
 20 
0.375
 11 
4.7
 21 
0.425
 0 
LINE
 8 
0
 62 
 7 
 10 
4.7
 20 
0.425
 11 
4.725
 21 
0.425
 0 
LINE
 8 
0
 62 
 7 
 10 
4.725
 20 
0.425
 11 
4.733
 21 
0.417
 0 
LINE
 8 
0
 62 
 7 
 10 
4.733
 20 
0.417
 11 
4.733
 21 
0.408
 0 
LINE
 8 
0
 62 
 7 
 10 
4.733
 20 
0.408
 11 
4.725
 21 
0.4
 0 
LINE
 8 
0
 62 
 7 
 10 
4.725
 20 
0.4
 11 
4.7
 21 
0.4
 0 
LINE
 8 
0
 62 
 7 
 10 
4.708
 20 
0.4
 11 
4.733
 21 
0.375
 0 
LINE
 8 
0
 62 
 7 
 10 
4.733
 20 
0.317
 11 
4.725
 21 
0.325
 0 
LINE
 8 
0
 62 
 7 
 10 
4.725
 20 
0.325
 11 
4.708
 21 
0.325
 0 
LINE
 8 
0
 62 
 7 
 10 
4.708
 20 
0.325
 11 
4.7
 21 
0.317
 0 
LINE
 8 
0
 62 
 7 
 10 
4.7
 20 
0.317
 11 
4.7
 21 
0.283
 0 
LINE
 8 
0
 62 
 7 
 10 
4.7
 20 
0.283
 11 
4.708
 21 
0.275
 0 
LINE
 8 
0
 62 
 7 
 10 
4.708
 20 
0.275
 11 
4.725
 21 
0.275
 0 
LINE
 8 
0
 62 
 7 
 10 
4.725
 20 
0.275
 11 
4.733
 21 
0.283
 0 
LINE
 8 
0
 62 
 7 
 10 
5.008
 20 
0.517
 11 
5.0
 21 
0.525
 0 
LINE
 8 
0
 62 
 7 
 10 
5.0
 20 
0.525
 11 
4.983
 21 
0.525
 0 
LINE
 8 
0
 62 
 7 
 10 
4.983
 20 
0.525
 11 
4.975
 21 
0.517
 0 
LINE
 8 
0
 62 
 7 
 10 
4.975
 20 
0.517
 11 
4.975
 21 
0.508
 0 
LINE
 8 
0
 62 
 7 
 10 
4.975
 20 
0.508
 11 
4.983
 21 
0.5
 0 
LINE
 8 
0
 62 
 7 
 10 
4.983
 20 
0.5
 11 
5.0
 21 
0.5
 0 
LINE
 8 
0
 62 
 7 
 10 
5.0
 20 
0.5
 11 
5.008
 21 
0.492
 0 
LINE
 8 
0
 62 
 7 
 10 
5.008
 20 
0.492
 11 
5.008
 21 
0.483
 0 
LINE
 8 
0
 62 
 7 
 10 
5.008
 20 
0.483
 11 
5.0
 21 
0.475
 0 
LINE
 8 
0
 62 
 7 
 10 
5.0
 20 
0.475
 11 
4.983
 21 
0.475
 0 
LINE
 8 
0
 62 
 7 
 10 
4.983
 20 
0.475
 11 
4.975
 21 
0.483
 0 
LINE
 8 
0
 62 
 7 
 10 
4.975
 20 
0.375
 11 
4.975
 21 
0.425
 0 
LINE
 8 
0
 62 
 7 
 10 
4.975
 20 
0.425
 11 
5.0
 21 
0.425
 0 
LINE
 8 
0
 62 
 7 
 10 
5.0
 20 
0.425
 11 
5.008
 21 
0.417
 0 
LINE
 8 
0
 62 
 7 
 10 
5.008
 20 
0.417
 11 
5.008
 21 
0.408
 0 
LINE
 8 
0
 62 
 7 
 10 
5.008
 20 
0.408
 11 
5.0
 21 
0.4
 0 
LINE
 8 
0
 62 
 7 
 10 
5.0
 20 
0.4
 11 
4.975
 21 
0.4
 0 
LINE
 8 
0
 62 
 7 
 10 
4.983
 20 
0.4
 11 
5.008
 21 
0.375
 0 
LINE
 8 
0
 62 
 7 
 10 
5.008
 20 
0.317
 11 
5.0
 21 
0.325
 0 
LINE
 8 
0
 62 
 7 
 10 
5.0
 20 
0.325
 11 
4.983
 21 
0.325
 0 
LINE
 8 
0
 62 
 7 
 10 
4.983
 20 
0.325
 11 
4.975
 21 
0.317
 0 
LINE
 8 
0
 62 
 7 
 10 
4.975
 20 
0.317
 11 
4.975
 21 
0.283
 0 
LINE
 8 
0
 62 
 7 
 10 
4.975
 20 
0.283
 11 
4.983
 21 
0.275
 0 
LINE
 8 
0
 62 
 7 
 10 
4.983
 20 
0.275
 11 
5.0
 21 
0.275
 0 
LINE
 8 
0
 62 
 7 
 10 
5.0
 20 
0.275
 11 
5.008
 21 
0.283
 0 
LINE
 8 
0
 62 
 7 
 10 
5.133
 20 
0.517
 11 
5.125
 21 
0.525
 0 
LINE
 8 
0
 62 
 7 
 10 
5.125
 20 
0.525
 11 
5.108
 21 
0.525
 0 
LINE
 8 
0
 62 
 7 
 10 
5.108
 20 
0.525
 11 
5.1
 21 
0.517
 0 
LINE
 8 
0
 62 
 7 
 10 
5.1
 20 
0.517
 11 
5.1
 21 
0.508
 0 
LINE
 8 
0
 62 
 7 
 10 
5.1
 20 
0.508
 11 
5.108
 21 
0.5
 0 
LINE
 8 
0
 62 
 7 
 10 
5.108
 20 
0.5
 11 
5.125
 21 
0.5
 0 
LINE
 8 
0
 62 
 7 
 10 
5.125
 20 
0.5
 11 
5.133
 21 
0.492
 0 
LINE
 8 
0
 62 
 7 
 10 
5.133
 20 
0.492
 11 
5.133
 21 
0.483
 0 
LINE
 8 
0
 62 
 7 
 10 
5.133
 20 
0.483
 11 
5.125
 21 
0.475
 0 
LINE
 8 
0
 62 
 7 
 10 
5.125
 20 
0.475
 11 
5.108
 21 
0.475
 0 
LINE
 8 
0
 62 
 7 
 10 
5.108
 20 
0.475
 11 
5.1
 21 
0.483
 0 
LINE
 8 
0
 62 
 7 
 10 
5.1
 20 
0.375
 11 
5.1
 21 
0.425
 0 
LINE
 8 
0
 62 
 7 
 10 
5.1
 20 
0.425
 11 
5.125
 21 
0.425
 0 
LINE
 8 
0
 62 
 7 
 10 
5.125
 20 
0.425
 11 
5.133
 21 
0.417
 0 
LINE
 8 
0
 62 
 7 
 10 
5.133
 20 
0.417
 11 
5.133
 21 
0.408
 0 
LINE
 8 
0
 62 
 7 
 10 
5.133
 20 
0.408
 11 
5.125
 21 
0.4
 0 
LINE
 8 
0
 62 
 7 
 10 
5.125
 20 
0.4
 11 
5.1
 21 
0.4
 0 
LINE
 8 
0
 62 
 7 
 10 
5.108
 20 
0.4
 11 
5.133
 21 
0.375
 0 
LINE
 8 
0
 62 
 7 
 10 
5.133
 20 
0.317
 11 
5.125
 21 
0.325
 0 
LINE
 8 
0
 62 
 7 
 10 
5.125
 20 
0.325
 11 
5.108
 21 
0.325
 0 
LINE
 8 
0
 62 
 7 
 10 
5.108
 20 
0.325
 11 
5.1
 21 
0.317
 0 
LINE
 8 
0
 62 
 7 
 10 
5.1
 20 
0.317
 11 
5.1
 21 
0.283
 0 
LINE
 8 
0
 62 
 7 
 10 
5.1
 20 
0.283
 11 
5.108
 21 
0.275
 0 
LINE
 8 
0
 62 
 7 
 10 
5.108
 20 
0.275
 11 
5.125
 21 
0.275
 0 
LINE
 8 
0
 62 
 7 
 10 
5.125
 20 
0.275
 11 
5.133
 21 
0.283
 0 
LINE
 8 
0
 62 
 7 
 10 
5.408
 20 
0.517
 11 
5.4
 21 
0.525
 0 
LINE
 8 
0
 62 
 7 
 10 
5.4
 20 
0.525
 11 
5.383
 21 
0.525
 0 
LINE
 8 
0
 62 
 7 
 10 
5.383
 20 
0.525
 11 
5.375
 21 
0.517
 0 
LINE
 8 
0
 62 
 7 
 10 
5.375
 20 
0.517
 11 
5.375
 21 
0.508
 0 
LINE
 8 
0
 62 
 7 
 10 
5.375
 20 
0.508
 11 
5.383
 21 
0.5
 0 
LINE
 8 
0
 62 
 7 
 10 
5.383
 20 
0.5
 11 
5.4
 21 
0.5
 0 
LINE
 8 
0
 62 
 7 
 10 
5.4
 20 
0.5
 11 
5.408
 21 
0.492
 0 
LINE
 8 
0
 62 
 7 
 10 
5.408
 20 
0.492
 11 
5.408
 21 
0.483
 0 
LINE
 8 
0
 62 
 7 
 10 
5.408
 20 
0.483
 11 
5.4
 21 
0.475
 0 
LINE
 8 
0
 62 
 7 
 10 
5.4
 20 
0.475
 11 
5.383
 21 
0.475
 0 
LINE
 8 
0
 62 
 7 
 10 
5.383
 20 
0.475
 11 
5.375
 21 
0.483
 0 
LINE
 8 
0
 62 
 7 
 10 
5.375
 20 
0.375
 11 
5.375
 21 
0.425
 0 
LINE
 8 
0
 62 
 7 
 10 
5.375
 20 
0.425
 11 
5.4
 21 
0.425
 0 
LINE
 8 
0
 62 
 7 
 10 
5.4
 20 
0.425
 11 
5.408
 21 
0.417
 0 
LINE
 8 
0
 62 
 7 
 10 
5.408
 20 
0.417
 11 
5.408
 21 
0.408
 0 
LINE
 8 
0
 62 
 7 
 10 
5.408
 20 
0.408
 11 
5.4
 21 
0.4
 0 
LINE
 8 
0
 62 
 7 
 10 
5.4
 20 
0.4
 11 
5.375
 21 
0.4
 0 
LINE
 8 
0
 62 
 7 
 10 
5.383
 20 
0.4
 11 
5.408
 21 
0.375
 0 
LINE
 8 
0
 62 
 7 
 10 
5.408
 20 
0.317
 11 
5.4
 21 
0.325
 0 
LINE
 8 
0
 62 
 7 
 10 
5.4
 20 
0.325
 11 
5.383
 21 
0.325
 0 
LINE
 8 
0
 62 
 7 
 10 
5.383
 20 
0.325
 11 
5.375
 21 
0.317
 0 
LINE
 8 
0
 62 
 7 
 10 
5.375
 20 
0.317
 11 
5.375
 21 
0.283
 0 
LINE
 8 
0
 62 
 7 
 10 
5.375
 20 
0.283
 11 
5.383
 21 
0.275
 0 
LINE
 8 
0
 62 
 7 
 10 
5.383
 20 
0.275
 11 
5.4
 21 
0.275
 0 
LINE
 8 
0
 62 
 7 
 10 
5.4
 20 
0.275
 11 
5.408
 21 
0.283
 0 
LINE
 8 
0
 62 
 7 
 10 
5.533
 20 
0.517
 11 
5.525
 21 
0.525
 0 
LINE
 8 
0
 62 
 7 
 10 
5.525
 20 
0.525
 11 
5.508
 21 
0.525
 0 
LINE
 8 
0
 62 
 7 
 10 
5.508
 20 
0.525
 11 
5.5
 21 
0.517
 0 
LINE
 8 
0
 62 
 7 
 10 
5.5
 20 
0.517
 11 
5.5
 21 
0.508
 0 
LINE
 8 
0
 62 
 7 
 10 
5.5
 20 
0.508
 11 
5.508
 21 
0.5
 0 
LINE
 8 
0
 62 
 7 
 10 
5.508
 20 
0.5
 11 
5.525
 21 
0.5
 0 
LINE
 8 
0
 62 
 7 
 10 
5.525
 20 
0.5
 11 
5.533
 21 
0.492
 0 
LINE
 8 
0
 62 
 7 
 10 
5.533
 20 
0.492
 11 
5.533
 21 
0.483
 0 
LINE
 8 
0
 62 
 7 
 10 
5.533
 20 
0.483
 11 
5.525
 21 
0.475
 0 
LINE
 8 
0
 62 
 7 
 10 
5.525
 20 
0.475
 11 
5.508
 21 
0.475
 0 
LINE
 8 
0
 62 
 7 
 10 
5.508
 20 
0.475
 11 
5.5
 21 
0.483
 0 
LINE
 8 
0
 62 
 7 
 10 
5.5
 20 
0.375
 11 
5.5
 21 
0.425
 0 
LINE
 8 
0
 62 
 7 
 10 
5.5
 20 
0.425
 11 
5.525
 21 
0.425
 0 
LINE
 8 
0
 62 
 7 
 10 
5.525
 20 
0.425
 11 
5.533
 21 
0.417
 0 
LINE
 8 
0
 62 
 7 
 10 
5.533
 20 
0.417
 11 
5.533
 21 
0.408
 0 
LINE
 8 
0
 62 
 7 
 10 
5.533
 20 
0.408
 11 
5.525
 21 
0.4
 0 
LINE
 8 
0
 62 
 7 
 10 
5.525
 20 
0.4
 11 
5.5
 21 
0.4
 0 
LINE
 8 
0
 62 
 7 
 10 
5.508
 20 
0.4
 11 
5.533
 21 
0.375
 0 
LINE
 8 
0
 62 
 7 
 10 
5.533
 20 
0.317
 11 
5.525
 21 
0.325
 0 
LINE
 8 
0
 62 
 7 
 10 
5.525
 20 
0.325
 11 
5.508
 21 
0.325
 0 
LINE
 8 
0
 62 
 7 
 10 
5.508
 20 
0.325
 11 
5.5
 21 
0.317
 0 
LINE
 8 
0
 62 
 7 
 10 
5.5
 20 
0.317
 11 
5.5
 21 
0.283
 0 
LINE
 8 
0
 62 
 7 
 10 
5.5
 20 
0.283
 11 
5.508
 21 
0.275
 0 
LINE
 8 
0
 62 
 7 
 10 
5.508
 20 
0.275
 11 
5.525
 21 
0.275
 0 
LINE
 8 
0
 62 
 7 
 10 
5.525
 20 
0.275
 11 
5.533
 21 
0.283
 0 
LINE
 8 
0
 62 
 7 
 10 
5.808
 20 
0.517
 11 
5.8
 21 
0.525
 0 
LINE
 8 
0
 62 
 7 
 10 
5.8
 20 
0.525
 11 
5.783
 21 
0.525
 0 
LINE
 8 
0
 62 
 7 
 10 
5.783
 20 
0.525
 11 
5.775
 21 
0.517
 0 
LINE
 8 
0
 62 
 7 
 10 
5.775
 20 
0.517
 11 
5.775
 21 
0.508
 0 
LINE
 8 
0
 62 
 7 
 10 
5.775
 20 
0.508
 11 
5.783
 21 
0.5
 0 
LINE
 8 
0
 62 
 7 
 10 
5.783
 20 
0.5
 11 
5.8
 21 
0.5
 0 
LINE
 8 
0
 62 
 7 
 10 
5.8
 20 
0.5
 11 
5.808
 21 
0.492
 0 
LINE
 8 
0
 62 
 7 
 10 
5.808
 20 
0.492
 11 
5.808
 21 
0.483
 0 
LINE
 8 
0
 62 
 7 
 10 
5.808
 20 
0.483
 11 
5.8
 21 
0.475
 0 
LINE
 8 
0
 62 
 7 
 10 
5.8
 20 
0.475
 11 
5.783
 21 
0.475
 0 
LINE
 8 
0
 62 
 7 
 10 
5.783
 20 
0.475
 11 
5.775
 21 
0.483
 0 
LINE
 8 
0
 62 
 7 
 10 
5.775
 20 
0.375
 11 
5.775
 21 
0.425
 0 
LINE
 8 
0
 62 
 7 
 10 
5.775
 20 
0.425
 11 
5.8
 21 
0.425
 0 
LINE
 8 
0
 62 
 7 
 10 
5.8
 20 
0.425
 11 
5.808
 21 
0.417
 0 
LINE
 8 
0
 62 
 7 
 10 
5.808
 20 
0.417
 11 
5.808
 21 
0.408
 0 
LINE
 8 
0
 62 
 7 
 10 
5.808
 20 
0.408
 11 
5.8
 21 
0.4
 0 
LINE
 8 
0
 62 
 7 
 10 
5.8
 20 
0.4
 11 
5.775
 21 
0.4
 0 
LINE
 8 
0
 62 
 7 
 10 
5.783
 20 
0.4
 11 
5.808
 21 
0.375
 0 
LINE
 8 
0
 62 
 7 
 10 
5.808
 20 
0.317
 11 
5.8
 21 
0.325
 0 
LINE
 8 
0
 62 
 7 
 10 
5.8
 20 
0.325
 11 
5.783
 21 
0.325
 0 
LINE
 8 
0
 62 
 7 
 10 
5.783
 20 
0.325
 11 
5.775
 21 
0.317
 0 
LINE
 8 
0
 62 
 7 
 10 
5.775
 20 
0.317
 11 
5.775
 21 
0.283
 0 
LINE
 8 
0
 62 
 7 
 10 
5.775
 20 
0.283
 11 
5.783
 21 
0.275
 0 
LINE
 8 
0
 62 
 7 
 10 
5.783
 20 
0.275
 11 
5.8
 21 
0.275
 0 
LINE
 8 
0
 62 
 7 
 10 
5.8
 20 
0.275
 11 
5.808
 21 
0.283
 0 
ENDSEC
 0 
EOF
