 0 
SECTION
 2 
HEADER
 9 
$ACADVER
 1 
AC1004
 9 
$EXTMIN
 10 
0.0
 20 
0.0
 9 
$EXTMAX
 10 
2.0
 20 
1.6
 9 
$LIMMIN
 10 
0.0
 20 
0.0
 9 
$LIMMAX
 10 
2.0
 20 
1.6
 9 
$INSBASE
 10 
0.0
 20 
0.0
 9 
$VIEWCTR
 10 
1.0
 20 
0.8
 9 
$VIEWSIZE
 40 
1.6
 9 
$ORTHOMODE
 70 
 0 
 9 
$REGENMODE
 70 
 1 
 9 
$FILLMODE
 70 
 1 
 9 
$QTEXTMODE
 70 
 0 
 9 
$DRAGMODE
 70 
 2 
 9 
$LTSCALE
 40 
1.0
 9 
$OSMODE
 70 
 0 
 9 
$ATTMODE
 70 
 1 
 9 
$TEXTSIZE
 40 
0.2
 9 
$TRACEWID
 40 
0.05
 9 
$TEXTSTYLE
 7 
STANDARD
 9 
$CLAYER
 8 
0
 9 
$CELTYPE
 6 
BYLAYER
 9 
$CECOLOR
 62 
 256 
 9 
$DIMSCALE
 40 
1.0
 9 
$DIMLFAC
 40 
1.0
 9 
$LUNITS
 70 
 2 
 9 
$LUPREC
 70 
 4 
 9 
$AXISMODE
 70 
 0 
 9 
$AXISUNIT
 10 
0.0
 20 
0.0
 9 
$SKETCHINC
 40 
0.1
 9 
$MENU
 1 
acad
 9 
$ELEVATION
 40 
0.0
 9 
$THICKNESS
 40 
0.0
 9 
$VIEWDIR
 10 
0.0
 20 
0.0
 30 
1.0
 9 
$LIMCHECK
 70 
 0 
 9 
$BLIPMODE
 70 
 1 
 9 
$FASTZOOM
 70 
 1 
 9 
$SKPOLY
 70 
 0 
 9 
$ANGBASE
 50 
0.0
 9 
$ANGDIR
 70 
 0 
 9 
$PDMODE
 70 
 0 
 9 
$PDSIZE
 40 
0.0
 9 
$PLINEWID
 40 
0.0
 9 
$COORDS
 70 
 0 
 9 
$ATTDIA
 70 
 0 
 9 
$ATTREQ
 70 
 1 
 0 
ENDSEC
 0 
SECTION
 2 
TABLES
 0 
TABLE
 2 
LTYPE
 70 
 10 
 0 
LTYPE
 2 
CONTINUOUS
 70 
 64 
 3 
Solid line
 72 
 65 
 73 
 0 
 40 
0.0
 0 
ENDTAB
 0 
TABLE
 2 
LAYER
 70 
 153 
 0 
LAYER
 2 
0
 70 
 64 
 62 
 7 
 6 
CONTINUOUS
 0 
ENDTAB
 0 
ENDSEC
 0 
SECTION
 2 
BLOCKS
 0 
ENDSEC
 0 
SECTION
 2 
ENTITIES
 0 
LINE
 8 
0
 62 
 7 
 10 
0.0
 20 
1.6
 11 
2.0
 21 
1.6
 0 
LINE
 8 
0
 62 
 7 
 10 
2.0
 20 
1.6
 11 
2.0
 21 
0.0
 0 
LINE
 8 
0
 62 
 7 
 10 
2.0
 20 
0.0
 11 
0.0
 21 
0.0
 0 
LINE
 8 
0
 62 
 7 
 10 
0.0
 20 
0.0
 11 
0.0
 21 
1.6
 0 
LINE
 8 
0
 62 
 7 
 10 
0.457
 20 
0.866
 11 
0.432
 21 
0.866
 0 
CIRCLE
 8 
0
 62 
 7 
 10 
0.445
 20 
0.852
 40 
0.005
 0 
CIRCLE
 8 
0
 62 
 7 
 10 
0.504
 20 
0.795
 40 
0.01
 0 
CIRCLE
 8 
0
 62 
 7 
 10 
0.803
 20 
0.775
 40 
0.01
 0 
LINE
 8 
0
 62 
 7 
 10 
0.432
 20 
0.866
 11 
0.432
 21 
0.841
 0 
LINE
 8 
0
 62 
 7 
 10 
0.458
 20 
0.727
 11 
0.433
 21 
0.727
 0 
LINE
 8 
0
 62 
 7 
 10 
0.433
 20 
0.727
 11 
0.433
 21 
0.752
 0 
LINE
 8 
0
 62 
 7 
 10 
0.549
 20 
0.726
 11 
0.574
 21 
0.726
 0 
LINE
 8 
0
 62 
 7 
 10 
0.574
 20 
0.726
 11 
0.574
 21 
0.751
 0 
LINE
 8 
0
 62 
 7 
 10 
0.549
 20 
0.867
 11 
0.574
 21 
0.867
 0 
LINE
 8 
0
 62 
 7 
 10 
0.574
 20 
0.867
 11 
0.574
 21 
0.842
 0 
LINE
 8 
0
 62 
 7 
 10 
0.756
 20 
0.846
 11 
0.731
 21 
0.846
 0 
CIRCLE
 8 
0
 62 
 7 
 10 
0.744
 20 
0.832
 40 
0.005
 0 
LINE
 8 
0
 62 
 7 
 10 
0.731
 20 
0.846
 11 
0.731
 21 
0.821
 0 
LINE
 8 
0
 62 
 7 
 10 
0.757
 20 
0.707
 11 
0.732
 21 
0.707
 0 
LINE
 8 
0
 62 
 7 
 10 
0.732
 20 
0.707
 11 
0.732
 21 
0.732
 0 
LINE
 8 
0
 62 
 7 
 10 
0.848
 20 
0.706
 11 
0.873
 21 
0.706
 0 
LINE
 8 
0
 62 
 7 
 10 
0.873
 20 
0.706
 11 
0.873
 21 
0.731
 0 
LINE
 8 
0
 62 
 7 
 10 
0.848
 20 
0.847
 11 
0.873
 21 
0.847
 0 
LINE
 8 
0
 62 
 7 
 10 
0.873
 20 
0.847
 11 
0.873
 21 
0.822
 0 
LINE
 8 
0
 62 
 7 
 10 
1.125
 20 
0.775
 11 
1.125
 21 
0.733
 0 
LINE
 8 
0
 62 
 7 
 10 
1.125
 20 
0.733
 11 
1.133
 21 
0.725
 0 
LINE
 8 
0
 62 
 7 
 10 
1.133
 20 
0.725
 11 
1.15
 21 
0.725
 0 
LINE
 8 
0
 62 
 7 
 10 
1.15
 20 
0.725
 11 
1.158
 21 
0.733
 0 
LINE
 8 
0
 62 
 7 
 10 
1.158
 20 
0.733
 11 
1.158
 21 
0.775
 0 
LINE
 8 
0
 62 
 7 
 10 
1.175
 20 
0.767
 11 
1.183
 21 
0.775
 0 
LINE
 8 
0
 62 
 7 
 10 
1.183
 20 
0.775
 11 
1.2
 21 
0.775
 0 
LINE
 8 
0
 62 
 7 
 10 
1.2
 20 
0.775
 11 
1.208
 21 
0.767
 0 
LINE
 8 
0
 62 
 7 
 10 
1.208
 20 
0.767
 11 
1.208
 21 
0.758
 0 
LINE
 8 
0
 62 
 7 
 10 
1.208
 20 
0.758
 11 
1.2
 21 
0.75
 0 
LINE
 8 
0
 62 
 7 
 10 
1.2
 20 
0.75
 11 
1.192
 21 
0.75
 0 
LINE
 8 
0
 62 
 7 
 10 
1.2
 20 
0.75
 11 
1.208
 21 
0.742
 0 
LINE
 8 
0
 62 
 7 
 10 
1.208
 20 
0.742
 11 
1.208
 21 
0.733
 0 
LINE
 8 
0
 62 
 7 
 10 
1.208
 20 
0.733
 11 
1.2
 21 
0.725
 0 
LINE
 8 
0
 62 
 7 
 10 
1.2
 20 
0.725
 11 
1.183
 21 
0.725
 0 
LINE
 8 
0
 62 
 7 
 10 
1.183
 20 
0.725
 11 
1.175
 21 
0.733
 0 
LINE
 8 
0
 62 
 7 
 10 
0.6
 20 
0.825
 11 
0.6
 21 
0.783
 0 
LINE
 8 
0
 62 
 7 
 10 
0.6
 20 
0.783
 11 
0.608
 21 
0.775
 0 
LINE
 8 
0
 62 
 7 
 10 
0.608
 20 
0.775
 11 
0.625
 21 
0.775
 0 
LINE
 8 
0
 62 
 7 
 10 
0.625
 20 
0.775
 11 
0.633
 21 
0.783
 0 
LINE
 8 
0
 62 
 7 
 10 
0.633
 20 
0.783
 11 
0.633
 21 
0.825
 0 
LINE
 8 
0
 62 
 7 
 10 
0.658
 20 
0.817
 11 
0.667
 21 
0.825
 0 
LINE
 8 
0
 62 
 7 
 10 
0.667
 20 
0.825
 11 
0.667
 21 
0.775
 0 
LINE
 8 
0
 62 
 7 
 10 
0.658
 20 
0.775
 11 
0.675
 21 
0.775
 0 
LINE
 8 
0
 62 
 7 
 10 
0.9
 20 
0.8
 11 
0.9
 21 
0.758
 0 
LINE
 8 
0
 62 
 7 
 10 
0.9
 20 
0.758
 11 
0.908
 21 
0.75
 0 
LINE
 8 
0
 62 
 7 
 10 
0.908
 20 
0.75
 11 
0.925
 21 
0.75
 0 
LINE
 8 
0
 62 
 7 
 10 
0.925
 20 
0.75
 11 
0.933
 21 
0.758
 0 
LINE
 8 
0
 62 
 7 
 10 
0.933
 20 
0.758
 11 
0.933
 21 
0.8
 0 
LINE
 8 
0
 62 
 7 
 10 
0.95
 20 
0.792
 11 
0.958
 21 
0.8
 0 
LINE
 8 
0
 62 
 7 
 10 
0.958
 20 
0.8
 11 
0.975
 21 
0.8
 0 
LINE
 8 
0
 62 
 7 
 10 
0.975
 20 
0.8
 11 
0.983
 21 
0.792
 0 
LINE
 8 
0
 62 
 7 
 10 
0.983
 20 
0.792
 11 
0.983
 21 
0.783
 0 
LINE
 8 
0
 62 
 7 
 10 
0.983
 20 
0.783
 11 
0.975
 21 
0.775
 0 
LINE
 8 
0
 62 
 7 
 10 
0.975
 20 
0.775
 11 
0.958
 21 
0.775
 0 
LINE
 8 
0
 62 
 7 
 10 
0.958
 20 
0.775
 11 
0.95
 21 
0.767
 0 
LINE
 8 
0
 62 
 7 
 10 
0.95
 20 
0.767
 11 
0.95
 21 
0.75
 0 
LINE
 8 
0
 62 
 7 
 10 
0.95
 20 
0.75
 11 
0.983
 21 
0.75
 0 
LINE
 8 
0
 62 
 7 
 10 
1.142
 20 
0.91
 11 
1.119
 21 
0.91
 0 
LINE
 8 
0
 62 
 7 
 10 
1.119
 20 
0.91
 11 
1.119
 21 
0.808
 0 
LINE
 8 
0
 62 
 7 
 10 
1.119
 20 
0.808
 11 
1.191
 21 
0.808
 0 
LINE
 8 
0
 62 
 7 
 10 
1.191
 20 
0.808
 11 
1.191
 21 
0.91
 0 
LINE
 8 
0
 62 
 7 
 10 
1.191
 20 
0.91
 11 
1.168
 21 
0.91
 0 
LINE
 8 
0
 62 
 7 
 10 
1.168
 20 
0.91
 11 
1.168
 21 
0.884
 0 
LINE
 8 
0
 62 
 7 
 10 
1.168
 20 
0.884
 11 
1.142
 21 
0.884
 0 
LINE
 8 
0
 62 
 7 
 10 
1.142
 20 
0.884
 11 
1.142
 21 
0.91
 0 
LINE
 8 
0
 62 
 7 
 10 
1.3
 20 
0.55
 11 
0.8
 21 
0.55
 0 
LINE
 8 
0
 62 
 7 
 10 
0.8
 20 
0.55
 11 
0.8
 21 
0.25
 0 
LINE
 8 
0
 62 
 7 
 10 
0.8
 20 
0.25
 11 
1.3
 21 
0.25
 0 
LINE
 8 
0
 62 
 7 
 10 
1.3
 20 
0.25
 11 
1.325
 21 
0.275
 0 
LINE
 8 
0
 62 
 7 
 10 
1.325
 20 
0.275
 11 
1.325
 21 
0.525
 0 
LINE
 8 
0
 62 
 7 
 10 
1.325
 20 
0.525
 11 
1.3
 21 
0.55
 0 
LINE
 8 
0
 62 
 7 
 10 
1.0
 20 
0.625
 11 
1.0
 21 
0.583
 0 
LINE
 8 
0
 62 
 7 
 10 
1.0
 20 
0.583
 11 
1.008
 21 
0.575
 0 
LINE
 8 
0
 62 
 7 
 10 
1.008
 20 
0.575
 11 
1.025
 21 
0.575
 0 
LINE
 8 
0
 62 
 7 
 10 
1.025
 20 
0.575
 11 
1.033
 21 
0.583
 0 
LINE
 8 
0
 62 
 7 
 10 
1.033
 20 
0.583
 11 
1.033
 21 
0.625
 0 
LINE
 8 
0
 62 
 7 
 10 
1.083
 20 
0.592
 11 
1.05
 21 
0.592
 0 
LINE
 8 
0
 62 
 7 
 10 
1.05
 20 
0.592
 11 
1.05
 21 
0.6
 0 
LINE
 8 
0
 62 
 7 
 10 
1.05
 20 
0.6
 11 
1.075
 21 
0.625
 0 
LINE
 8 
0
 62 
 7 
 10 
1.075
 20 
0.625
 11 
1.075
 21 
0.575
 0 
LINE
 8 
0
 62 
 7 
 10 
0.524
 20 
0.964
 11 
0.568
 21 
0.964
 0 
LINE
 8 
0
 62 
 7 
 10 
0.568
 20 
0.964
 11 
0.568
 21 
1.034
 0 
LINE
 8 
0
 62 
 7 
 10 
0.568
 20 
1.034
 11 
0.524
 21 
1.034
 0 
LINE
 8 
0
 62 
 7 
 10 
0.488
 20 
0.964
 11 
0.444
 21 
0.964
 0 
LINE
 8 
0
 62 
 7 
 10 
0.444
 20 
0.964
 11 
0.444
 21 
1.034
 0 
LINE
 8 
0
 62 
 7 
 10 
0.444
 20 
1.034
 11 
0.488
 21 
1.034
 0 
LINE
 8 
0
 62 
 7 
 10 
0.617
 20 
1.016
 11 
0.609
 21 
1.024
 0 
LINE
 8 
0
 62 
 7 
 10 
0.609
 20 
1.024
 11 
0.592
 21 
1.024
 0 
LINE
 8 
0
 62 
 7 
 10 
0.592
 20 
1.024
 11 
0.584
 21 
1.016
 0 
LINE
 8 
0
 62 
 7 
 10 
0.584
 20 
1.016
 11 
0.584
 21 
0.982
 0 
LINE
 8 
0
 62 
 7 
 10 
0.584
 20 
0.982
 11 
0.592
 21 
0.974
 0 
LINE
 8 
0
 62 
 7 
 10 
0.592
 20 
0.974
 11 
0.609
 21 
0.974
 0 
LINE
 8 
0
 62 
 7 
 10 
0.609
 20 
0.974
 11 
0.617
 21 
0.982
 0 
LINE
 8 
0
 62 
 7 
 10 
0.634
 20 
1.016
 11 
0.642
 21 
1.024
 0 
LINE
 8 
0
 62 
 7 
 10 
0.642
 20 
1.024
 11 
0.659
 21 
1.024
 0 
LINE
 8 
0
 62 
 7 
 10 
0.659
 20 
1.024
 11 
0.667
 21 
1.016
 0 
LINE
 8 
0
 62 
 7 
 10 
0.667
 20 
1.016
 11 
0.667
 21 
1.007
 0 
LINE
 8 
0
 62 
 7 
 10 
0.667
 20 
1.007
 11 
0.659
 21 
0.999
 0 
LINE
 8 
0
 62 
 7 
 10 
0.659
 20 
0.999
 11 
0.651
 21 
0.999
 0 
LINE
 8 
0
 62 
 7 
 10 
0.659
 20 
0.999
 11 
0.667
 21 
0.991
 0 
LINE
 8 
0
 62 
 7 
 10 
0.667
 20 
0.991
 11 
0.667
 21 
0.982
 0 
LINE
 8 
0
 62 
 7 
 10 
0.667
 20 
0.982
 11 
0.659
 21 
0.974
 0 
LINE
 8 
0
 62 
 7 
 10 
0.659
 20 
0.974
 11 
0.642
 21 
0.974
 0 
LINE
 8 
0
 62 
 7 
 10 
0.642
 20 
0.974
 11 
0.634
 21 
0.982
 0 
LINE
 8 
0
 62 
 7 
 10 
0.524
 20 
0.889
 11 
0.568
 21 
0.889
 0 
LINE
 8 
0
 62 
 7 
 10 
0.568
 20 
0.889
 11 
0.568
 21 
0.959
 0 
LINE
 8 
0
 62 
 7 
 10 
0.568
 20 
0.959
 11 
0.524
 21 
0.959
 0 
LINE
 8 
0
 62 
 7 
 10 
0.488
 20 
0.889
 11 
0.444
 21 
0.889
 0 
LINE
 8 
0
 62 
 7 
 10 
0.444
 20 
0.889
 11 
0.444
 21 
0.959
 0 
LINE
 8 
0
 62 
 7 
 10 
0.444
 20 
0.959
 11 
0.488
 21 
0.959
 0 
LINE
 8 
0
 62 
 7 
 10 
0.617
 20 
0.941
 11 
0.609
 21 
0.949
 0 
LINE
 8 
0
 62 
 7 
 10 
0.609
 20 
0.949
 11 
0.592
 21 
0.949
 0 
LINE
 8 
0
 62 
 7 
 10 
0.592
 20 
0.949
 11 
0.584
 21 
0.941
 0 
LINE
 8 
0
 62 
 7 
 10 
0.584
 20 
0.941
 11 
0.584
 21 
0.907
 0 
LINE
 8 
0
 62 
 7 
 10 
0.584
 20 
0.907
 11 
0.592
 21 
0.899
 0 
LINE
 8 
0
 62 
 7 
 10 
0.592
 20 
0.899
 11 
0.609
 21 
0.899
 0 
LINE
 8 
0
 62 
 7 
 10 
0.609
 20 
0.899
 11 
0.617
 21 
0.907
 0 
LINE
 8 
0
 62 
 7 
 10 
0.659
 20 
0.949
 11 
0.651
 21 
0.949
 0 
LINE
 8 
0
 62 
 7 
 10 
0.651
 20 
0.949
 11 
0.634
 21 
0.932
 0 
LINE
 8 
0
 62 
 7 
 10 
0.634
 20 
0.932
 11 
0.634
 21 
0.907
 0 
LINE
 8 
0
 62 
 7 
 10 
0.634
 20 
0.907
 11 
0.642
 21 
0.899
 0 
LINE
 8 
0
 62 
 7 
 10 
0.642
 20 
0.899
 11 
0.659
 21 
0.899
 0 
LINE
 8 
0
 62 
 7 
 10 
0.659
 20 
0.899
 11 
0.667
 21 
0.907
 0 
LINE
 8 
0
 62 
 7 
 10 
0.667
 20 
0.907
 11 
0.667
 21 
0.916
 0 
LINE
 8 
0
 62 
 7 
 10 
0.667
 20 
0.916
 11 
0.659
 21 
0.924
 0 
LINE
 8 
0
 62 
 7 
 10 
0.659
 20 
0.924
 11 
0.642
 21 
0.924
 0 
LINE
 8 
0
 62 
 7 
 10 
0.642
 20 
0.924
 11 
0.634
 21 
0.916
 0 
LINE
 8 
0
 62 
 7 
 10 
0.823
 20 
0.94
 11 
0.867
 21 
0.94
 0 
LINE
 8 
0
 62 
 7 
 10 
0.867
 20 
0.94
 11 
0.867
 21 
1.01
 0 
LINE
 8 
0
 62 
 7 
 10 
0.867
 20 
1.01
 11 
0.823
 21 
1.01
 0 
LINE
 8 
0
 62 
 7 
 10 
0.787
 20 
0.94
 11 
0.743
 21 
0.94
 0 
LINE
 8 
0
 62 
 7 
 10 
0.743
 20 
0.94
 11 
0.743
 21 
1.01
 0 
LINE
 8 
0
 62 
 7 
 10 
0.743
 20 
1.01
 11 
0.787
 21 
1.01
 0 
LINE
 8 
0
 62 
 7 
 10 
0.797
 20 
1.067
 11 
0.789
 21 
1.075
 0 
LINE
 8 
0
 62 
 7 
 10 
0.789
 20 
1.075
 11 
0.772
 21 
1.075
 0 
LINE
 8 
0
 62 
 7 
 10 
0.772
 20 
1.075
 11 
0.764
 21 
1.067
 0 
LINE
 8 
0
 62 
 7 
 10 
0.764
 20 
1.067
 11 
0.764
 21 
1.033
 0 
LINE
 8 
0
 62 
 7 
 10 
0.764
 20 
1.033
 11 
0.772
 21 
1.025
 0 
LINE
 8 
0
 62 
 7 
 10 
0.772
 20 
1.025
 11 
0.789
 21 
1.025
 0 
LINE
 8 
0
 62 
 7 
 10 
0.789
 20 
1.025
 11 
0.797
 21 
1.033
 0 
LINE
 8 
0
 62 
 7 
 10 
0.847
 20 
1.042
 11 
0.814
 21 
1.042
 0 
LINE
 8 
0
 62 
 7 
 10 
0.814
 20 
1.042
 11 
0.814
 21 
1.05
 0 
LINE
 8 
0
 62 
 7 
 10 
0.814
 20 
1.05
 11 
0.839
 21 
1.075
 0 
LINE
 8 
0
 62 
 7 
 10 
0.839
 20 
1.075
 11 
0.839
 21 
1.025
 0 
LINE
 8 
0
 62 
 7 
 10 
0.823
 20 
0.865
 11 
0.867
 21 
0.865
 0 
LINE
 8 
0
 62 
 7 
 10 
0.867
 20 
0.865
 11 
0.867
 21 
0.935
 0 
LINE
 8 
0
 62 
 7 
 10 
0.867
 20 
0.935
 11 
0.823
 21 
0.935
 0 
LINE
 8 
0
 62 
 7 
 10 
0.787
 20 
0.865
 11 
0.743
 21 
0.865
 0 
LINE
 8 
0
 62 
 7 
 10 
0.743
 20 
0.865
 11 
0.743
 21 
0.935
 0 
LINE
 8 
0
 62 
 7 
 10 
0.743
 20 
0.935
 11 
0.787
 21 
0.935
 0 
LINE
 8 
0
 62 
 7 
 10 
0.917
 20 
0.912
 11 
0.909
 21 
0.92
 0 
LINE
 8 
0
 62 
 7 
 10 
0.909
 20 
0.92
 11 
0.892
 21 
0.92
 0 
LINE
 8 
0
 62 
 7 
 10 
0.892
 20 
0.92
 11 
0.884
 21 
0.912
 0 
LINE
 8 
0
 62 
 7 
 10 
0.884
 20 
0.912
 11 
0.884
 21 
0.878
 0 
LINE
 8 
0
 62 
 7 
 10 
0.884
 20 
0.878
 11 
0.892
 21 
0.87
 0 
LINE
 8 
0
 62 
 7 
 10 
0.892
 20 
0.87
 11 
0.909
 21 
0.87
 0 
LINE
 8 
0
 62 
 7 
 10 
0.909
 20 
0.87
 11 
0.917
 21 
0.878
 0 
LINE
 8 
0
 62 
 7 
 10 
0.934
 20 
0.912
 11 
0.934
 21 
0.92
 0 
LINE
 8 
0
 62 
 7 
 10 
0.934
 20 
0.92
 11 
0.967
 21 
0.92
 0 
LINE
 8 
0
 62 
 7 
 10 
0.967
 20 
0.92
 11 
0.967
 21 
0.912
 0 
LINE
 8 
0
 62 
 7 
 10 
0.967
 20 
0.912
 11 
0.942
 21 
0.887
 0 
LINE
 8 
0
 62 
 7 
 10 
0.942
 20 
0.887
 11 
0.942
 21 
0.87
 0 
LINE
 8 
0
 62 
 7 
 10 
1.27
 20 
1.01
 11 
1.226
 21 
1.01
 0 
LINE
 8 
0
 62 
 7 
 10 
1.226
 20 
1.01
 11 
1.226
 21 
0.94
 0 
LINE
 8 
0
 62 
 7 
 10 
1.226
 20 
0.94
 11 
1.27
 21 
0.94
 0 
LINE
 8 
0
 62 
 7 
 10 
1.306
 20 
1.01
 11 
1.35
 21 
1.01
 0 
LINE
 8 
0
 62 
 7 
 10 
1.35
 20 
1.01
 11 
1.35
 21 
0.94
 0 
LINE
 8 
0
 62 
 7 
 10 
1.35
 20 
0.94
 11 
1.306
 21 
0.94
 0 
LINE
 8 
0
 62 
 7 
 10 
1.143
 20 
1.017
 11 
1.135
 21 
1.025
 0 
LINE
 8 
0
 62 
 7 
 10 
1.135
 20 
1.025
 11 
1.118
 21 
1.025
 0 
LINE
 8 
0
 62 
 7 
 10 
1.118
 20 
1.025
 11 
1.11
 21 
1.017
 0 
LINE
 8 
0
 62 
 7 
 10 
1.11
 20 
1.017
 11 
1.11
 21 
0.983
 0 
LINE
 8 
0
 62 
 7 
 10 
1.11
 20 
0.983
 11 
1.118
 21 
0.975
 0 
LINE
 8 
0
 62 
 7 
 10 
1.118
 20 
0.975
 11 
1.135
 21 
0.975
 0 
LINE
 8 
0
 62 
 7 
 10 
1.135
 20 
0.975
 11 
1.143
 21 
0.983
 0 
LINE
 8 
0
 62 
 7 
 10 
1.193
 20 
1.025
 11 
1.16
 21 
1.025
 0 
LINE
 8 
0
 62 
 7 
 10 
1.16
 20 
1.025
 11 
1.16
 21 
1.008
 0 
LINE
 8 
0
 62 
 7 
 10 
1.16
 20 
1.008
 11 
1.185
 21 
1.008
 0 
LINE
 8 
0
 62 
 7 
 10 
1.185
 20 
1.008
 11 
1.193
 21 
1.0
 0 
LINE
 8 
0
 62 
 7 
 10 
1.193
 20 
1.0
 11 
1.193
 21 
0.983
 0 
LINE
 8 
0
 62 
 7 
 10 
1.193
 20 
0.983
 11 
1.185
 21 
0.975
 0 
LINE
 8 
0
 62 
 7 
 10 
1.185
 20 
0.975
 11 
1.168
 21 
0.975
 0 
LINE
 8 
0
 62 
 7 
 10 
1.168
 20 
0.975
 11 
1.16
 21 
0.983
 0 
LINE
 8 
0
 62 
 7 
 10 
0.551
 20 
0.685
 11 
0.507
 21 
0.685
 0 
LINE
 8 
0
 62 
 7 
 10 
0.507
 20 
0.685
 11 
0.507
 21 
0.615
 0 
LINE
 8 
0
 62 
 7 
 10 
0.507
 20 
0.615
 11 
0.551
 21 
0.615
 0 
LINE
 8 
0
 62 
 7 
 10 
0.587
 20 
0.685
 11 
0.631
 21 
0.685
 0 
LINE
 8 
0
 62 
 7 
 10 
0.631
 20 
0.685
 11 
0.631
 21 
0.615
 0 
LINE
 8 
0
 62 
 7 
 10 
0.631
 20 
0.615
 11 
0.587
 21 
0.615
 0 
LINE
 8 
0
 62 
 7 
 10 
0.683
 20 
0.667
 11 
0.675
 21 
0.675
 0 
LINE
 8 
0
 62 
 7 
 10 
0.675
 20 
0.675
 11 
0.658
 21 
0.675
 0 
LINE
 8 
0
 62 
 7 
 10 
0.658
 20 
0.675
 11 
0.65
 21 
0.667
 0 
LINE
 8 
0
 62 
 7 
 10 
0.65
 20 
0.667
 11 
0.65
 21 
0.633
 0 
LINE
 8 
0
 62 
 7 
 10 
0.65
 20 
0.633
 11 
0.658
 21 
0.625
 0 
LINE
 8 
0
 62 
 7 
 10 
0.658
 20 
0.625
 11 
0.675
 21 
0.625
 0 
LINE
 8 
0
 62 
 7 
 10 
0.675
 20 
0.625
 11 
0.683
 21 
0.633
 0 
LINE
 8 
0
 62 
 7 
 10 
0.708
 20 
0.65
 11 
0.7
 21 
0.658
 0 
LINE
 8 
0
 62 
 7 
 10 
0.7
 20 
0.658
 11 
0.7
 21 
0.667
 0 
LINE
 8 
0
 62 
 7 
 10 
0.7
 20 
0.667
 11 
0.708
 21 
0.675
 0 
LINE
 8 
0
 62 
 7 
 10 
0.708
 20 
0.675
 11 
0.725
 21 
0.675
 0 
LINE
 8 
0
 62 
 7 
 10 
0.725
 20 
0.675
 11 
0.733
 21 
0.667
 0 
LINE
 8 
0
 62 
 7 
 10 
0.733
 20 
0.667
 11 
0.733
 21 
0.658
 0 
LINE
 8 
0
 62 
 7 
 10 
0.733
 20 
0.658
 11 
0.725
 21 
0.65
 0 
LINE
 8 
0
 62 
 7 
 10 
0.725
 20 
0.65
 11 
0.708
 21 
0.65
 0 
LINE
 8 
0
 62 
 7 
 10 
0.708
 20 
0.65
 11 
0.7
 21 
0.642
 0 
LINE
 8 
0
 62 
 7 
 10 
0.7
 20 
0.642
 11 
0.7
 21 
0.633
 0 
LINE
 8 
0
 62 
 7 
 10 
0.7
 20 
0.633
 11 
0.708
 21 
0.625
 0 
LINE
 8 
0
 62 
 7 
 10 
0.708
 20 
0.625
 11 
0.725
 21 
0.625
 0 
LINE
 8 
0
 62 
 7 
 10 
0.725
 20 
0.625
 11 
0.733
 21 
0.633
 0 
LINE
 8 
0
 62 
 7 
 10 
0.733
 20 
0.633
 11 
0.733
 21 
0.642
 0 
LINE
 8 
0
 62 
 7 
 10 
0.733
 20 
0.642
 11 
0.725
 21 
0.65
 0 
LINE
 8 
0
 62 
 7 
 10 
0.31
 20 
0.875
 11 
0.266
 21 
0.875
 0 
LINE
 8 
0
 62 
 7 
 10 
0.266
 20 
0.875
 11 
0.266
 21 
0.805
 0 
LINE
 8 
0
 62 
 7 
 10 
0.266
 20 
0.805
 11 
0.31
 21 
0.805
 0 
LINE
 8 
0
 62 
 7 
 10 
0.346
 20 
0.875
 11 
0.39
 21 
0.875
 0 
LINE
 8 
0
 62 
 7 
 10 
0.39
 20 
0.875
 11 
0.39
 21 
0.805
 0 
LINE
 8 
0
 62 
 7 
 10 
0.39
 20 
0.805
 11 
0.346
 21 
0.805
 0 
LINE
 8 
0
 62 
 7 
 10 
0.283
 20 
0.967
 11 
0.275
 21 
0.975
 0 
LINE
 8 
0
 62 
 7 
 10 
0.275
 20 
0.975
 11 
0.258
 21 
0.975
 0 
LINE
 8 
0
 62 
 7 
 10 
0.258
 20 
0.975
 11 
0.25
 21 
0.967
 0 
LINE
 8 
0
 62 
 7 
 10 
0.25
 20 
0.967
 11 
0.25
 21 
0.933
 0 
LINE
 8 
0
 62 
 7 
 10 
0.25
 20 
0.933
 11 
0.258
 21 
0.925
 0 
LINE
 8 
0
 62 
 7 
 10 
0.258
 20 
0.925
 11 
0.275
 21 
0.925
 0 
LINE
 8 
0
 62 
 7 
 10 
0.275
 20 
0.925
 11 
0.283
 21 
0.933
 0 
LINE
 8 
0
 62 
 7 
 10 
0.333
 20 
0.958
 11 
0.325
 21 
0.95
 0 
LINE
 8 
0
 62 
 7 
 10 
0.325
 20 
0.95
 11 
0.308
 21 
0.95
 0 
LINE
 8 
0
 62 
 7 
 10 
0.308
 20 
0.95
 11 
0.3
 21 
0.958
 0 
LINE
 8 
0
 62 
 7 
 10 
0.3
 20 
0.958
 11 
0.3
 21 
0.967
 0 
LINE
 8 
0
 62 
 7 
 10 
0.3
 20 
0.967
 11 
0.308
 21 
0.975
 0 
LINE
 8 
0
 62 
 7 
 10 
0.308
 20 
0.975
 11 
0.325
 21 
0.975
 0 
LINE
 8 
0
 62 
 7 
 10 
0.325
 20 
0.975
 11 
0.333
 21 
0.967
 0 
LINE
 8 
0
 62 
 7 
 10 
0.333
 20 
0.967
 11 
0.333
 21 
0.942
 0 
LINE
 8 
0
 62 
 7 
 10 
0.333
 20 
0.942
 11 
0.317
 21 
0.925
 0 
LINE
 8 
0
 62 
 7 
 10 
0.317
 20 
0.925
 11 
0.308
 21 
0.925
 0 
LINE
 8 
0
 62 
 7 
 10 
0.31
 20 
0.795
 11 
0.266
 21 
0.795
 0 
LINE
 8 
0
 62 
 7 
 10 
0.266
 20 
0.795
 11 
0.266
 21 
0.725
 0 
LINE
 8 
0
 62 
 7 
 10 
0.266
 20 
0.725
 11 
0.31
 21 
0.725
 0 
LINE
 8 
0
 62 
 7 
 10 
0.346
 20 
0.795
 11 
0.39
 21 
0.795
 0 
LINE
 8 
0
 62 
 7 
 10 
0.39
 20 
0.795
 11 
0.39
 21 
0.725
 0 
LINE
 8 
0
 62 
 7 
 10 
0.39
 20 
0.725
 11 
0.346
 21 
0.725
 0 
LINE
 8 
0
 62 
 7 
 10 
0.283
 20 
0.667
 11 
0.275
 21 
0.675
 0 
LINE
 8 
0
 62 
 7 
 10 
0.275
 20 
0.675
 11 
0.258
 21 
0.675
 0 
LINE
 8 
0
 62 
 7 
 10 
0.258
 20 
0.675
 11 
0.25
 21 
0.667
 0 
LINE
 8 
0
 62 
 7 
 10 
0.25
 20 
0.667
 11 
0.25
 21 
0.633
 0 
LINE
 8 
0
 62 
 7 
 10 
0.25
 20 
0.633
 11 
0.258
 21 
0.625
 0 
LINE
 8 
0
 62 
 7 
 10 
0.258
 20 
0.625
 11 
0.275
 21 
0.625
 0 
LINE
 8 
0
 62 
 7 
 10 
0.275
 20 
0.625
 11 
0.283
 21 
0.633
 0 
LINE
 8 
0
 62 
 7 
 10 
0.308
 20 
0.667
 11 
0.317
 21 
0.675
 0 
LINE
 8 
0
 62 
 7 
 10 
0.317
 20 
0.675
 11 
0.317
 21 
0.625
 0 
LINE
 8 
0
 62 
 7 
 10 
0.308
 20 
0.625
 11 
0.325
 21 
0.625
 0 
LINE
 8 
0
 62 
 7 
 10 
0.35
 20 
0.633
 11 
0.35
 21 
0.667
 0 
LINE
 8 
0
 62 
 7 
 10 
0.35
 20 
0.667
 11 
0.358
 21 
0.675
 0 
LINE
 8 
0
 62 
 7 
 10 
0.358
 20 
0.675
 11 
0.375
 21 
0.675
 0 
LINE
 8 
0
 62 
 7 
 10 
0.375
 20 
0.675
 11 
0.383
 21 
0.667
 0 
LINE
 8 
0
 62 
 7 
 10 
0.383
 20 
0.667
 11 
0.383
 21 
0.633
 0 
LINE
 8 
0
 62 
 7 
 10 
0.383
 20 
0.633
 11 
0.375
 21 
0.625
 0 
LINE
 8 
0
 62 
 7 
 10 
0.375
 20 
0.625
 11 
0.358
 21 
0.625
 0 
LINE
 8 
0
 62 
 7 
 10 
0.358
 20 
0.625
 11 
0.35
 21 
0.633
 0 
LINE
 8 
0
 62 
 7 
 10 
0.35
 20 
0.633
 11 
0.383
 21 
0.667
 0 
CIRCLE
 8 
0
 62 
 7 
 10 
1.475
 20 
0.175
 40 
0.02
 0 
CIRCLE
 8 
0
 62 
 7 
 10 
1.575
 20 
0.175
 40 
0.02
 0 
LINE
 8 
0
 62 
 7 
 10 
1.415
 20 
0.05
 11 
1.415
 21 
0.3
 0 
LINE
 8 
0
 62 
 7 
 10 
1.635
 20 
0.3
 11 
1.415
 21 
0.3
 0 
LINE
 8 
0
 62 
 7 
 10 
1.635
 20 
0.3
 11 
1.635
 21 
0.05
 0 
LINE
 8 
0
 62 
 7 
 10 
1.415
 20 
0.05
 11 
1.635
 21 
0.05
 0 
LINE
 8 
0
 62 
 7 
 10 
1.475
 20 
0.056
 11 
1.475
 21 
0.074
 0 
LINE
 8 
0
 62 
 7 
 10 
1.575
 20 
0.074
 11 
1.475
 21 
0.074
 0 
LINE
 8 
0
 62 
 7 
 10 
1.575
 20 
0.074
 11 
1.575
 21 
0.056
 0 
LINE
 8 
0
 62 
 7 
 10 
1.475
 20 
0.056
 11 
1.575
 21 
0.056
 0 
LINE
 8 
0
 62 
 7 
 10 
1.475
 20 
0.062
 11 
1.475
 21 
0.068
 0 
LINE
 8 
0
 62 
 7 
 10 
1.575
 20 
0.068
 11 
1.475
 21 
0.068
 0 
LINE
 8 
0
 62 
 7 
 10 
1.575
 20 
0.068
 11 
1.575
 21 
0.062
 0 
LINE
 8 
0
 62 
 7 
 10 
1.475
 20 
0.062
 11 
1.575
 21 
0.062
 0 
LINE
 8 
0
 62 
 7 
 10 
1.283
 20 
0.1
 11 
1.308
 21 
0.1
 0 
LINE
 8 
0
 62 
 7 
 10 
1.308
 20 
0.1
 11 
1.308
 21 
0.058
 0 
LINE
 8 
0
 62 
 7 
 10 
1.308
 20 
0.058
 11 
1.3
 21 
0.05
 0 
LINE
 8 
0
 62 
 7 
 10 
1.3
 20 
0.05
 11 
1.283
 21 
0.05
 0 
LINE
 8 
0
 62 
 7 
 10 
1.283
 20 
0.05
 11 
1.275
 21 
0.058
 0 
LINE
 8 
0
 62 
 7 
 10 
1.333
 20 
0.092
 11 
1.342
 21 
0.1
 0 
LINE
 8 
0
 62 
 7 
 10 
1.342
 20 
0.1
 11 
1.342
 21 
0.05
 0 
LINE
 8 
0
 62 
 7 
 10 
1.333
 20 
0.05
 11 
1.35
 21 
0.05
 0 
CIRCLE
 8 
0
 62 
 7 
 10 
1.6
 20 
1.05
 40 
0.018
 0 
CIRCLE
 8 
0
 62 
 7 
 10 
1.7
 20 
1.05
 40 
0.018
 0 
CIRCLE
 8 
0
 62 
 7 
 10 
1.6
 20 
0.95
 40 
0.018
 0 
CIRCLE
 8 
0
 62 
 7 
 10 
1.7
 20 
0.95
 40 
0.018
 0 
CIRCLE
 8 
0
 62 
 7 
 10 
1.6
 20 
0.85
 40 
0.018
 0 
CIRCLE
 8 
0
 62 
 7 
 10 
1.7
 20 
0.85
 40 
0.018
 0 
CIRCLE
 8 
0
 62 
 7 
 10 
1.6
 20 
0.75
 40 
0.018
 0 
CIRCLE
 8 
0
 62 
 7 
 10 
1.7
 20 
0.75
 40 
0.018
 0 
CIRCLE
 8 
0
 62 
 7 
 10 
1.6
 20 
0.65
 40 
0.018
 0 
CIRCLE
 8 
0
 62 
 7 
 10 
1.7
 20 
0.65
 40 
0.018
 0 
CIRCLE
 8 
0
 62 
 7 
 10 
1.6
 20 
0.55
 40 
0.018
 0 
CIRCLE
 8 
0
 62 
 7 
 10 
1.7
 20 
0.55
 40 
0.018
 0 
CIRCLE
 8 
0
 62 
 7 
 10 
1.6
 20 
0.45
 40 
0.018
 0 
CIRCLE
 8 
0
 62 
 7 
 10 
1.7
 20 
0.45
 40 
0.018
 0 
LINE
 8 
0
 62 
 7 
 10 
1.525
 20 
1.125
 11 
1.775
 21 
1.125
 0 
LINE
 8 
0
 62 
 7 
 10 
1.775
 20 
0.375
 11 
1.775
 21 
1.125
 0 
LINE
 8 
0
 62 
 7 
 10 
1.775
 20 
0.375
 11 
1.525
 21 
0.375
 0 
LINE
 8 
0
 62 
 7 
 10 
1.525
 20 
1.125
 11 
1.525
 21 
0.375
 0 
LINE
 8 
0
 62 
 7 
 10 
1.408
 20 
0.6
 11 
1.433
 21 
0.6
 0 
LINE
 8 
0
 62 
 7 
 10 
1.433
 20 
0.6
 11 
1.433
 21 
0.558
 0 
LINE
 8 
0
 62 
 7 
 10 
1.433
 20 
0.558
 11 
1.425
 21 
0.55
 0 
LINE
 8 
0
 62 
 7 
 10 
1.425
 20 
0.55
 11 
1.408
 21 
0.55
 0 
LINE
 8 
0
 62 
 7 
 10 
1.408
 20 
0.55
 11 
1.4
 21 
0.558
 0 
LINE
 8 
0
 62 
 7 
 10 
1.45
 20 
0.592
 11 
1.458
 21 
0.6
 0 
LINE
 8 
0
 62 
 7 
 10 
1.458
 20 
0.6
 11 
1.475
 21 
0.6
 0 
LINE
 8 
0
 62 
 7 
 10 
1.475
 20 
0.6
 11 
1.483
 21 
0.592
 0 
LINE
 8 
0
 62 
 7 
 10 
1.483
 20 
0.592
 11 
1.483
 21 
0.583
 0 
LINE
 8 
0
 62 
 7 
 10 
1.483
 20 
0.583
 11 
1.475
 21 
0.575
 0 
LINE
 8 
0
 62 
 7 
 10 
1.475
 20 
0.575
 11 
1.458
 21 
0.575
 0 
LINE
 8 
0
 62 
 7 
 10 
1.458
 20 
0.575
 11 
1.45
 21 
0.567
 0 
LINE
 8 
0
 62 
 7 
 10 
1.45
 20 
0.567
 11 
1.45
 21 
0.55
 0 
LINE
 8 
0
 62 
 7 
 10 
1.45
 20 
0.55
 11 
1.483
 21 
0.55
 0 
LINE
 8 
0
 62 
 7 
 10 
0.283
 20 
1.15
 11 
0.308
 21 
1.15
 0 
LINE
 8 
0
 62 
 7 
 10 
0.308
 20 
1.15
 11 
0.308
 21 
1.108
 0 
LINE
 8 
0
 62 
 7 
 10 
0.308
 20 
1.108
 11 
0.3
 21 
1.1
 0 
LINE
 8 
0
 62 
 7 
 10 
0.3
 20 
1.1
 11 
0.283
 21 
1.1
 0 
LINE
 8 
0
 62 
 7 
 10 
0.283
 20 
1.1
 11 
0.275
 21 
1.108
 0 
LINE
 8 
0
 62 
 7 
 10 
0.325
 20 
1.142
 11 
0.333
 21 
1.15
 0 
LINE
 8 
0
 62 
 7 
 10 
0.333
 20 
1.15
 11 
0.35
 21 
1.15
 0 
LINE
 8 
0
 62 
 7 
 10 
0.35
 20 
1.15
 11 
0.358
 21 
1.142
 0 
LINE
 8 
0
 62 
 7 
 10 
0.358
 20 
1.142
 11 
0.358
 21 
1.133
 0 
LINE
 8 
0
 62 
 7 
 10 
0.358
 20 
1.133
 11 
0.35
 21 
1.125
 0 
LINE
 8 
0
 62 
 7 
 10 
0.35
 20 
1.125
 11 
0.342
 21 
1.125
 0 
LINE
 8 
0
 62 
 7 
 10 
0.35
 20 
1.125
 11 
0.358
 21 
1.117
 0 
LINE
 8 
0
 62 
 7 
 10 
0.358
 20 
1.117
 11 
0.358
 21 
1.108
 0 
LINE
 8 
0
 62 
 7 
 10 
0.358
 20 
1.108
 11 
0.35
 21 
1.1
 0 
LINE
 8 
0
 62 
 7 
 10 
0.35
 20 
1.1
 11 
0.333
 21 
1.1
 0 
LINE
 8 
0
 62 
 7 
 10 
0.333
 20 
1.1
 11 
0.325
 21 
1.108
 0 
CIRCLE
 8 
0
 62 
 7 
 10 
0.15
 20 
1.45
 40 
0.062
 0 
CIRCLE
 8 
0
 62 
 7 
 10 
1.85
 20 
1.45
 40 
0.062
 0 
CIRCLE
 8 
0
 62 
 7 
 10 
0.15
 20 
0.15
 40 
0.062
 0 
CIRCLE
 8 
0
 62 
 7 
 10 
1.85
 20 
0.15
 40 
0.062
 0 
LINE
 8 
0
 62 
 7 
 10 
1.8
 20 
1.175
 11 
1.8
 21 
1.225
 0 
LINE
 8 
0
 62 
 7 
 10 
1.8
 20 
1.225
 11 
1.825
 21 
1.225
 0 
LINE
 8 
0
 62 
 7 
 10 
1.825
 20 
1.225
 11 
1.833
 21 
1.217
 0 
LINE
 8 
0
 62 
 7 
 10 
1.833
 20 
1.217
 11 
1.833
 21 
1.208
 0 
LINE
 8 
0
 62 
 7 
 10 
1.833
 20 
1.208
 11 
1.825
 21 
1.2
 0 
LINE
 8 
0
 62 
 7 
 10 
1.825
 20 
1.2
 11 
1.8
 21 
1.2
 0 
LINE
 8 
0
 62 
 7 
 10 
1.85
 20 
1.225
 11 
1.85
 21 
1.175
 0 
LINE
 8 
0
 62 
 7 
 10 
1.85
 20 
1.175
 11 
1.867
 21 
1.192
 0 
LINE
 8 
0
 62 
 7 
 10 
1.867
 20 
1.192
 11 
1.883
 21 
1.175
 0 
LINE
 8 
0
 62 
 7 
 10 
1.883
 20 
1.175
 11 
1.883
 21 
1.225
 0 
LINE
 8 
0
 62 
 7 
 10 
1.867
 20 
1.192
 11 
1.867
 21 
1.2
 0 
LINE
 8 
0
 62 
 7 
 10 
1.9
 20 
1.175
 11 
1.9
 21 
1.225
 0 
LINE
 8 
0
 62 
 7 
 10 
1.9
 20 
1.225
 11 
1.925
 21 
1.225
 0 
LINE
 8 
0
 62 
 7 
 10 
1.925
 20 
1.225
 11 
1.933
 21 
1.217
 0 
LINE
 8 
0
 62 
 7 
 10 
1.933
 20 
1.217
 11 
1.933
 21 
1.208
 0 
LINE
 8 
0
 62 
 7 
 10 
1.933
 20 
1.208
 11 
1.925
 21 
1.2
 0 
LINE
 8 
0
 62 
 7 
 10 
1.925
 20 
1.2
 11 
1.9
 21 
1.2
 0 
LINE
 8 
0
 62 
 7 
 10 
1.908
 20 
1.2
 11 
1.933
 21 
1.175
 0 
LINE
 8 
0
 62 
 7 
 10 
1.8
 20 
1.075
 11 
1.822
 21 
1.075
 0 
LINE
 8 
0
 62 
 7 
 10 
1.822
 20 
1.075
 11 
1.83
 21 
1.067
 0 
LINE
 8 
0
 62 
 7 
 10 
1.83
 20 
1.067
 11 
1.83
 21 
1.037
 0 
LINE
 8 
0
 62 
 7 
 10 
1.83
 20 
1.037
 11 
1.822
 21 
1.03
 0 
LINE
 8 
0
 62 
 7 
 10 
1.822
 20 
1.03
 11 
1.8
 21 
1.03
 0 
LINE
 8 
0
 62 
 7 
 10 
1.808
 20 
1.075
 11 
1.808
 21 
1.03
 0 
LINE
 8 
0
 62 
 7 
 10 
1.852
 20 
1.075
 11 
1.868
 21 
1.075
 0 
LINE
 8 
0
 62 
 7 
 10 
1.852
 20 
1.03
 11 
1.868
 21 
1.03
 0 
LINE
 8 
0
 62 
 7 
 10 
1.86
 20 
1.075
 11 
1.86
 21 
1.03
 0 
LINE
 8 
0
 62 
 7 
 10 
1.89
 20 
1.075
 11 
1.89
 21 
1.053
 0 
LINE
 8 
0
 62 
 7 
 10 
1.89
 20 
1.053
 11 
1.905
 21 
1.037
 0 
LINE
 8 
0
 62 
 7 
 10 
1.905
 20 
1.037
 11 
1.92
 21 
1.053
 0 
LINE
 8 
0
 62 
 7 
 10 
1.92
 20 
1.053
 11 
1.92
 21 
1.075
 0 
LINE
 8 
0
 62 
 7 
 10 
1.905
 20 
1.037
 11 
1.905
 21 
1.03
 0 
LINE
 8 
0
 62 
 7 
 10 
1.935
 20 
1.037
 11 
1.935
 21 
1.067
 0 
LINE
 8 
0
 62 
 7 
 10 
1.935
 20 
1.067
 11 
1.942
 21 
1.075
 0 
LINE
 8 
0
 62 
 7 
 10 
1.942
 20 
1.075
 11 
1.958
 21 
1.075
 0 
LINE
 8 
0
 62 
 7 
 10 
1.958
 20 
1.075
 11 
1.965
 21 
1.067
 0 
LINE
 8 
0
 62 
 7 
 10 
1.965
 20 
1.067
 11 
1.965
 21 
1.037
 0 
LINE
 8 
0
 62 
 7 
 10 
1.965
 20 
1.037
 11 
1.958
 21 
1.03
 0 
LINE
 8 
0
 62 
 7 
 10 
1.958
 20 
1.03
 11 
1.942
 21 
1.03
 0 
LINE
 8 
0
 62 
 7 
 10 
1.942
 20 
1.03
 11 
1.935
 21 
1.037
 0 
LINE
 8 
0
 62 
 7 
 10 
1.935
 20 
1.037
 11 
1.965
 21 
1.067
 0 
LINE
 8 
0
 62 
 7 
 10 
1.8
 20 
0.975
 11 
1.822
 21 
0.975
 0 
LINE
 8 
0
 62 
 7 
 10 
1.822
 20 
0.975
 11 
1.83
 21 
0.967
 0 
LINE
 8 
0
 62 
 7 
 10 
1.83
 20 
0.967
 11 
1.83
 21 
0.937
 0 
LINE
 8 
0
 62 
 7 
 10 
1.83
 20 
0.937
 11 
1.822
 21 
0.93
 0 
LINE
 8 
0
 62 
 7 
 10 
1.822
 20 
0.93
 11 
1.8
 21 
0.93
 0 
LINE
 8 
0
 62 
 7 
 10 
1.808
 20 
0.975
 11 
1.808
 21 
0.93
 0 
LINE
 8 
0
 62 
 7 
 10 
1.852
 20 
0.975
 11 
1.868
 21 
0.975
 0 
LINE
 8 
0
 62 
 7 
 10 
1.852
 20 
0.93
 11 
1.868
 21 
0.93
 0 
LINE
 8 
0
 62 
 7 
 10 
1.86
 20 
0.975
 11 
1.86
 21 
0.93
 0 
LINE
 8 
0
 62 
 7 
 10 
1.89
 20 
0.975
 11 
1.89
 21 
0.953
 0 
LINE
 8 
0
 62 
 7 
 10 
1.89
 20 
0.953
 11 
1.905
 21 
0.937
 0 
LINE
 8 
0
 62 
 7 
 10 
1.905
 20 
0.937
 11 
1.92
 21 
0.953
 0 
LINE
 8 
0
 62 
 7 
 10 
1.92
 20 
0.953
 11 
1.92
 21 
0.975
 0 
LINE
 8 
0
 62 
 7 
 10 
1.905
 20 
0.937
 11 
1.905
 21 
0.93
 0 
LINE
 8 
0
 62 
 7 
 10 
1.942
 20 
0.967
 11 
1.95
 21 
0.975
 0 
LINE
 8 
0
 62 
 7 
 10 
1.95
 20 
0.975
 11 
1.95
 21 
0.93
 0 
LINE
 8 
0
 62 
 7 
 10 
1.942
 20 
0.93
 11 
1.958
 21 
0.93
 0 
LINE
 8 
0
 62 
 7 
 10 
1.8
 20 
0.875
 11 
1.822
 21 
0.875
 0 
LINE
 8 
0
 62 
 7 
 10 
1.822
 20 
0.875
 11 
1.83
 21 
0.867
 0 
LINE
 8 
0
 62 
 7 
 10 
1.83
 20 
0.867
 11 
1.83
 21 
0.837
 0 
LINE
 8 
0
 62 
 7 
 10 
1.83
 20 
0.837
 11 
1.822
 21 
0.83
 0 
LINE
 8 
0
 62 
 7 
 10 
1.822
 20 
0.83
 11 
1.8
 21 
0.83
 0 
LINE
 8 
0
 62 
 7 
 10 
1.808
 20 
0.875
 11 
1.808
 21 
0.83
 0 
LINE
 8 
0
 62 
 7 
 10 
1.852
 20 
0.875
 11 
1.868
 21 
0.875
 0 
LINE
 8 
0
 62 
 7 
 10 
1.852
 20 
0.83
 11 
1.868
 21 
0.83
 0 
LINE
 8 
0
 62 
 7 
 10 
1.86
 20 
0.875
 11 
1.86
 21 
0.83
 0 
LINE
 8 
0
 62 
 7 
 10 
1.89
 20 
0.875
 11 
1.89
 21 
0.853
 0 
LINE
 8 
0
 62 
 7 
 10 
1.89
 20 
0.853
 11 
1.905
 21 
0.837
 0 
LINE
 8 
0
 62 
 7 
 10 
1.905
 20 
0.837
 11 
1.92
 21 
0.853
 0 
LINE
 8 
0
 62 
 7 
 10 
1.92
 20 
0.853
 11 
1.92
 21 
0.875
 0 
LINE
 8 
0
 62 
 7 
 10 
1.905
 20 
0.837
 11 
1.905
 21 
0.83
 0 
LINE
 8 
0
 62 
 7 
 10 
1.935
 20 
0.867
 11 
1.942
 21 
0.875
 0 
LINE
 8 
0
 62 
 7 
 10 
1.942
 20 
0.875
 11 
1.958
 21 
0.875
 0 
LINE
 8 
0
 62 
 7 
 10 
1.958
 20 
0.875
 11 
1.965
 21 
0.867
 0 
LINE
 8 
0
 62 
 7 
 10 
1.965
 20 
0.867
 11 
1.965
 21 
0.86
 0 
LINE
 8 
0
 62 
 7 
 10 
1.965
 20 
0.86
 11 
1.958
 21 
0.853
 0 
LINE
 8 
0
 62 
 7 
 10 
1.958
 20 
0.853
 11 
1.942
 21 
0.853
 0 
LINE
 8 
0
 62 
 7 
 10 
1.942
 20 
0.853
 11 
1.935
 21 
0.845
 0 
LINE
 8 
0
 62 
 7 
 10 
1.935
 20 
0.845
 11 
1.935
 21 
0.83
 0 
LINE
 8 
0
 62 
 7 
 10 
1.935
 20 
0.83
 11 
1.965
 21 
0.83
 0 
LINE
 8 
0
 62 
 7 
 10 
1.26
 20 
1.135
 11 
1.216
 21 
1.135
 0 
LINE
 8 
0
 62 
 7 
 10 
1.216
 20 
1.135
 11 
1.216
 21 
1.065
 0 
LINE
 8 
0
 62 
 7 
 10 
1.216
 20 
1.065
 11 
1.26
 21 
1.065
 0 
LINE
 8 
0
 62 
 7 
 10 
1.296
 20 
1.135
 11 
1.34
 21 
1.135
 0 
LINE
 8 
0
 62 
 7 
 10 
1.34
 20 
1.135
 11 
1.34
 21 
1.065
 0 
LINE
 8 
0
 62 
 7 
 10 
1.34
 20 
1.065
 11 
1.296
 21 
1.065
 0 
LINE
 8 
0
 62 
 7 
 10 
1.1
 20 
1.075
 11 
1.1
 21 
1.125
 0 
LINE
 8 
0
 62 
 7 
 10 
1.1
 20 
1.125
 11 
1.125
 21 
1.125
 0 
LINE
 8 
0
 62 
 7 
 10 
1.125
 20 
1.125
 11 
1.133
 21 
1.117
 0 
LINE
 8 
0
 62 
 7 
 10 
1.133
 20 
1.117
 11 
1.133
 21 
1.108
 0 
LINE
 8 
0
 62 
 7 
 10 
1.133
 20 
1.108
 11 
1.125
 21 
1.1
 0 
LINE
 8 
0
 62 
 7 
 10 
1.125
 20 
1.1
 11 
1.1
 21 
1.1
 0 
LINE
 8 
0
 62 
 7 
 10 
1.108
 20 
1.1
 11 
1.133
 21 
1.075
 0 
LINE
 8 
0
 62 
 7 
 10 
1.158
 20 
1.117
 11 
1.167
 21 
1.125
 0 
LINE
 8 
0
 62 
 7 
 10 
1.167
 20 
1.125
 11 
1.167
 21 
1.075
 0 
LINE
 8 
0
 62 
 7 
 10 
1.158
 20 
1.075
 11 
1.175
 21 
1.075
 0 
LINE
 8 
0
 62 
 7 
 10 
0.515
 20 
1.14
 11 
0.559
 21 
1.14
 0 
LINE
 8 
0
 62 
 7 
 10 
0.559
 20 
1.14
 11 
0.559
 21 
1.21
 0 
LINE
 8 
0
 62 
 7 
 10 
0.559
 20 
1.21
 11 
0.515
 21 
1.21
 0 
LINE
 8 
0
 62 
 7 
 10 
0.479
 20 
1.14
 11 
0.435
 21 
1.14
 0 
LINE
 8 
0
 62 
 7 
 10 
0.435
 20 
1.14
 11 
0.435
 21 
1.21
 0 
LINE
 8 
0
 62 
 7 
 10 
0.435
 20 
1.21
 11 
0.479
 21 
1.21
 0 
LINE
 8 
0
 62 
 7 
 10 
0.594
 20 
1.15
 11 
0.594
 21 
1.2
 0 
LINE
 8 
0
 62 
 7 
 10 
0.594
 20 
1.2
 11 
0.619
 21 
1.2
 0 
LINE
 8 
0
 62 
 7 
 10 
0.619
 20 
1.2
 11 
0.627
 21 
1.192
 0 
LINE
 8 
0
 62 
 7 
 10 
0.627
 20 
1.192
 11 
0.627
 21 
1.183
 0 
LINE
 8 
0
 62 
 7 
 10 
0.627
 20 
1.183
 11 
0.619
 21 
1.175
 0 
LINE
 8 
0
 62 
 7 
 10 
0.619
 20 
1.175
 11 
0.594
 21 
1.175
 0 
LINE
 8 
0
 62 
 7 
 10 
0.602
 20 
1.175
 11 
0.627
 21 
1.15
 0 
LINE
 8 
0
 62 
 7 
 10 
0.644
 20 
1.192
 11 
0.652
 21 
1.2
 0 
LINE
 8 
0
 62 
 7 
 10 
0.652
 20 
1.2
 11 
0.669
 21 
1.2
 0 
LINE
 8 
0
 62 
 7 
 10 
0.669
 20 
1.2
 11 
0.677
 21 
1.192
 0 
LINE
 8 
0
 62 
 7 
 10 
0.677
 20 
1.192
 11 
0.677
 21 
1.183
 0 
LINE
 8 
0
 62 
 7 
 10 
0.677
 20 
1.183
 11 
0.669
 21 
1.175
 0 
LINE
 8 
0
 62 
 7 
 10 
0.669
 20 
1.175
 11 
0.652
 21 
1.175
 0 
LINE
 8 
0
 62 
 7 
 10 
0.652
 20 
1.175
 11 
0.644
 21 
1.167
 0 
LINE
 8 
0
 62 
 7 
 10 
0.644
 20 
1.167
 11 
0.644
 21 
1.15
 0 
LINE
 8 
0
 62 
 7 
 10 
0.644
 20 
1.15
 11 
0.677
 21 
1.15
 0 
LINE
 8 
0
 62 
 7 
 10 
0.84
 20 
1.14
 11 
0.884
 21 
1.14
 0 
LINE
 8 
0
 62 
 7 
 10 
0.884
 20 
1.14
 11 
0.884
 21 
1.21
 0 
LINE
 8 
0
 62 
 7 
 10 
0.884
 20 
1.21
 11 
0.84
 21 
1.21
 0 
LINE
 8 
0
 62 
 7 
 10 
0.804
 20 
1.14
 11 
0.76
 21 
1.14
 0 
LINE
 8 
0
 62 
 7 
 10 
0.76
 20 
1.14
 11 
0.76
 21 
1.21
 0 
LINE
 8 
0
 62 
 7 
 10 
0.76
 20 
1.21
 11 
0.804
 21 
1.21
 0 
LINE
 8 
0
 62 
 7 
 10 
0.919
 20 
1.15
 11 
0.919
 21 
1.2
 0 
LINE
 8 
0
 62 
 7 
 10 
0.919
 20 
1.2
 11 
0.944
 21 
1.2
 0 
LINE
 8 
0
 62 
 7 
 10 
0.944
 20 
1.2
 11 
0.952
 21 
1.192
 0 
LINE
 8 
0
 62 
 7 
 10 
0.952
 20 
1.192
 11 
0.952
 21 
1.183
 0 
LINE
 8 
0
 62 
 7 
 10 
0.952
 20 
1.183
 11 
0.944
 21 
1.175
 0 
LINE
 8 
0
 62 
 7 
 10 
0.944
 20 
1.175
 11 
0.919
 21 
1.175
 0 
LINE
 8 
0
 62 
 7 
 10 
0.927
 20 
1.175
 11 
0.952
 21 
1.15
 0 
LINE
 8 
0
 62 
 7 
 10 
0.969
 20 
1.192
 11 
0.977
 21 
1.2
 0 
LINE
 8 
0
 62 
 7 
 10 
0.977
 20 
1.2
 11 
0.994
 21 
1.2
 0 
LINE
 8 
0
 62 
 7 
 10 
0.994
 20 
1.2
 11 
1.002
 21 
1.192
 0 
LINE
 8 
0
 62 
 7 
 10 
1.002
 20 
1.192
 11 
1.002
 21 
1.183
 0 
LINE
 8 
0
 62 
 7 
 10 
1.002
 20 
1.183
 11 
0.994
 21 
1.175
 0 
LINE
 8 
0
 62 
 7 
 10 
0.994
 20 
1.175
 11 
0.986
 21 
1.175
 0 
LINE
 8 
0
 62 
 7 
 10 
0.994
 20 
1.175
 11 
1.002
 21 
1.167
 0 
LINE
 8 
0
 62 
 7 
 10 
1.002
 20 
1.167
 11 
1.002
 21 
1.158
 0 
LINE
 8 
0
 62 
 7 
 10 
1.002
 20 
1.158
 11 
0.994
 21 
1.15
 0 
LINE
 8 
0
 62 
 7 
 10 
0.994
 20 
1.15
 11 
0.977
 21 
1.15
 0 
LINE
 8 
0
 62 
 7 
 10 
0.977
 20 
1.15
 11 
0.969
 21 
1.158
 0 
LINE
 8 
0
 62 
 7 
 10 
0.935
 20 
1.01
 11 
0.891
 21 
1.01
 0 
LINE
 8 
0
 62 
 7 
 10 
0.891
 20 
1.01
 11 
0.891
 21 
0.94
 0 
LINE
 8 
0
 62 
 7 
 10 
0.891
 20 
0.94
 11 
0.935
 21 
0.94
 0 
LINE
 8 
0
 62 
 7 
 10 
0.971
 20 
1.01
 11 
1.015
 21 
1.01
 0 
LINE
 8 
0
 62 
 7 
 10 
1.015
 20 
1.01
 11 
1.015
 21 
0.94
 0 
LINE
 8 
0
 62 
 7 
 10 
1.015
 20 
0.94
 11 
0.971
 21 
0.94
 0 
LINE
 8 
0
 62 
 7 
 10 
0.9
 20 
1.025
 11 
0.9
 21 
1.075
 0 
LINE
 8 
0
 62 
 7 
 10 
0.9
 20 
1.075
 11 
0.925
 21 
1.075
 0 
LINE
 8 
0
 62 
 7 
 10 
0.925
 20 
1.075
 11 
0.933
 21 
1.067
 0 
LINE
 8 
0
 62 
 7 
 10 
0.933
 20 
1.067
 11 
0.933
 21 
1.058
 0 
LINE
 8 
0
 62 
 7 
 10 
0.933
 20 
1.058
 11 
0.925
 21 
1.05
 0 
LINE
 8 
0
 62 
 7 
 10 
0.925
 20 
1.05
 11 
0.9
 21 
1.05
 0 
LINE
 8 
0
 62 
 7 
 10 
0.908
 20 
1.05
 11 
0.933
 21 
1.025
 0 
LINE
 8 
0
 62 
 7 
 10 
0.983
 20 
1.042
 11 
0.95
 21 
1.042
 0 
LINE
 8 
0
 62 
 7 
 10 
0.95
 20 
1.042
 11 
0.95
 21 
1.05
 0 
LINE
 8 
0
 62 
 7 
 10 
0.95
 20 
1.05
 11 
0.975
 21 
1.075
 0 
LINE
 8 
0
 62 
 7 
 10 
0.975
 20 
1.075
 11 
0.975
 21 
1.025
 0 
LINE
 8 
0
 62 
 7 
 10 
1.26
 20 
1.235
 11 
1.216
 21 
1.235
 0 
LINE
 8 
0
 62 
 7 
 10 
1.216
 20 
1.235
 11 
1.216
 21 
1.165
 0 
LINE
 8 
0
 62 
 7 
 10 
1.216
 20 
1.165
 11 
1.26
 21 
1.165
 0 
LINE
 8 
0
 62 
 7 
 10 
1.296
 20 
1.235
 11 
1.34
 21 
1.235
 0 
LINE
 8 
0
 62 
 7 
 10 
1.34
 20 
1.235
 11 
1.34
 21 
1.165
 0 
LINE
 8 
0
 62 
 7 
 10 
1.34
 20 
1.165
 11 
1.296
 21 
1.165
 0 
LINE
 8 
0
 62 
 7 
 10 
1.1
 20 
1.175
 11 
1.1
 21 
1.225
 0 
LINE
 8 
0
 62 
 7 
 10 
1.1
 20 
1.225
 11 
1.125
 21 
1.225
 0 
LINE
 8 
0
 62 
 7 
 10 
1.125
 20 
1.225
 11 
1.133
 21 
1.217
 0 
LINE
 8 
0
 62 
 7 
 10 
1.133
 20 
1.217
 11 
1.133
 21 
1.208
 0 
LINE
 8 
0
 62 
 7 
 10 
1.133
 20 
1.208
 11 
1.125
 21 
1.2
 0 
LINE
 8 
0
 62 
 7 
 10 
1.125
 20 
1.2
 11 
1.1
 21 
1.2
 0 
LINE
 8 
0
 62 
 7 
 10 
1.108
 20 
1.2
 11 
1.133
 21 
1.175
 0 
LINE
 8 
0
 62 
 7 
 10 
1.175
 20 
1.225
 11 
1.167
 21 
1.225
 0 
LINE
 8 
0
 62 
 7 
 10 
1.167
 20 
1.225
 11 
1.15
 21 
1.208
 0 
LINE
 8 
0
 62 
 7 
 10 
1.15
 20 
1.208
 11 
1.15
 21 
1.183
 0 
LINE
 8 
0
 62 
 7 
 10 
1.15
 20 
1.183
 11 
1.158
 21 
1.175
 0 
LINE
 8 
0
 62 
 7 
 10 
1.158
 20 
1.175
 11 
1.175
 21 
1.175
 0 
LINE
 8 
0
 62 
 7 
 10 
1.175
 20 
1.175
 11 
1.183
 21 
1.183
 0 
LINE
 8 
0
 62 
 7 
 10 
1.183
 20 
1.183
 11 
1.183
 21 
1.192
 0 
LINE
 8 
0
 62 
 7 
 10 
1.183
 20 
1.192
 11 
1.175
 21 
1.2
 0 
LINE
 8 
0
 62 
 7 
 10 
1.175
 20 
1.2
 11 
1.158
 21 
1.2
 0 
LINE
 8 
0
 62 
 7 
 10 
1.158
 20 
1.2
 11 
1.15
 21 
1.192
 0 
LINE
 8 
0
 62 
 7 
 10 
1.393
 20 
0.895
 11 
1.335
 21 
0.895
 0 
LINE
 8 
0
 62 
 7 
 10 
1.335
 20 
0.895
 11 
1.335
 21 
0.805
 0 
LINE
 8 
0
 62 
 7 
 10 
1.335
 20 
0.805
 11 
1.393
 21 
0.805
 0 
LINE
 8 
0
 62 
 7 
 10 
1.433
 20 
0.895
 11 
1.491
 21 
0.895
 0 
LINE
 8 
0
 62 
 7 
 10 
1.491
 20 
0.895
 11 
1.491
 21 
0.805
 0 
LINE
 8 
0
 62 
 7 
 10 
1.491
 20 
0.805
 11 
1.433
 21 
0.805
 0 
LINE
 8 
0
 62 
 7 
 10 
1.375
 20 
0.725
 11 
1.375
 21 
0.775
 0 
LINE
 8 
0
 62 
 7 
 10 
1.375
 20 
0.775
 11 
1.4
 21 
0.775
 0 
LINE
 8 
0
 62 
 7 
 10 
1.4
 20 
0.775
 11 
1.408
 21 
0.767
 0 
LINE
 8 
0
 62 
 7 
 10 
1.408
 20 
0.767
 11 
1.408
 21 
0.758
 0 
LINE
 8 
0
 62 
 7 
 10 
1.408
 20 
0.758
 11 
1.4
 21 
0.75
 0 
LINE
 8 
0
 62 
 7 
 10 
1.4
 20 
0.75
 11 
1.375
 21 
0.75
 0 
LINE
 8 
0
 62 
 7 
 10 
1.383
 20 
0.75
 11 
1.408
 21 
0.725
 0 
LINE
 8 
0
 62 
 7 
 10 
1.458
 20 
0.775
 11 
1.425
 21 
0.775
 0 
LINE
 8 
0
 62 
 7 
 10 
1.425
 20 
0.775
 11 
1.425
 21 
0.758
 0 
LINE
 8 
0
 62 
 7 
 10 
1.425
 20 
0.758
 11 
1.45
 21 
0.758
 0 
LINE
 8 
0
 62 
 7 
 10 
1.45
 20 
0.758
 11 
1.458
 21 
0.75
 0 
LINE
 8 
0
 62 
 7 
 10 
1.458
 20 
0.75
 11 
1.458
 21 
0.733
 0 
LINE
 8 
0
 62 
 7 
 10 
1.458
 20 
0.733
 11 
1.45
 21 
0.725
 0 
LINE
 8 
0
 62 
 7 
 10 
1.45
 20 
0.725
 11 
1.433
 21 
0.725
 0 
LINE
 8 
0
 62 
 7 
 10 
1.433
 20 
0.725
 11 
1.425
 21 
0.733
 0 
LINE
 8 
0
 62 
 7 
 10 
0.901
 20 
0.228
 11 
0.803
 21 
0.228
 0 
LINE
 8 
0
 62 
 7 
 10 
0.822
 20 
0.228
 11 
0.822
 21 
0.122
 0 
LINE
 8 
0
 62 
 7 
 10 
0.803
 20 
0.122
 11 
0.901
 21 
0.122
 0 
LINE
 8 
0
 62 
 7 
 10 
0.973
 20 
0.228
 11 
1.052
 21 
0.228
 0 
LINE
 8 
0
 62 
 7 
 10 
1.052
 20 
0.228
 11 
1.052
 21 
0.122
 0 
LINE
 8 
0
 62 
 7 
 10 
1.052
 20 
0.122
 11 
0.973
 21 
0.122
 0 
LINE
 8 
0
 62 
 7 
 10 
0.811
 20 
0.224
 11 
0.811
 21 
0.124
 0 
LINE
 8 
0
 62 
 7 
 10 
0.803
 20 
0.226
 11 
0.803
 21 
0.126
 0 
LINE
 8 
0
 62 
 7 
 10 
0.9
 20 
0.1
 11 
0.925
 21 
0.1
 0 
LINE
 8 
0
 62 
 7 
 10 
0.925
 20 
0.1
 11 
0.933
 21 
0.092
 0 
LINE
 8 
0
 62 
 7 
 10 
0.933
 20 
0.092
 11 
0.933
 21 
0.058
 0 
LINE
 8 
0
 62 
 7 
 10 
0.933
 20 
0.058
 11 
0.925
 21 
0.05
 0 
LINE
 8 
0
 62 
 7 
 10 
0.925
 20 
0.05
 11 
0.9
 21 
0.05
 0 
LINE
 8 
0
 62 
 7 
 10 
0.908
 20 
0.1
 11 
0.908
 21 
0.05
 0 
LINE
 8 
0
 62 
 7 
 10 
0.958
 20 
0.092
 11 
0.967
 21 
0.1
 0 
LINE
 8 
0
 62 
 7 
 10 
0.967
 20 
0.1
 11 
0.967
 21 
0.05
 0 
LINE
 8 
0
 62 
 7 
 10 
0.958
 20 
0.05
 11 
0.975
 21 
0.05
 0 
LINE
 8 
0
 62 
 7 
 10 
1.657
 20 
1.155
 11 
1.736
 21 
1.155
 0 
LINE
 8 
0
 62 
 7 
 10 
1.715
 20 
1.155
 11 
1.715
 21 
1.245
 0 
LINE
 8 
0
 62 
 7 
 10 
1.737
 20 
1.245
 11 
1.657
 21 
1.245
 0 
LINE
 8 
0
 62 
 7 
 10 
1.617
 20 
1.155
 11 
1.559
 21 
1.155
 0 
LINE
 8 
0
 62 
 7 
 10 
1.559
 20 
1.155
 11 
1.559
 21 
1.245
 0 
LINE
 8 
0
 62 
 7 
 10 
1.559
 20 
1.245
 11 
1.617
 21 
1.245
 0 
LINE
 8 
0
 62 
 7 
 10 
1.737
 20 
1.156
 11 
1.737
 21 
1.245
 0 
LINE
 8 
0
 62 
 7 
 10 
1.725
 20 
1.155
 11 
1.725
 21 
1.244
 0 
LINE
 8 
0
 62 
 7 
 10 
1.45
 20 
1.225
 11 
1.475
 21 
1.225
 0 
LINE
 8 
0
 62 
 7 
 10 
1.475
 20 
1.225
 11 
1.483
 21 
1.217
 0 
LINE
 8 
0
 62 
 7 
 10 
1.483
 20 
1.217
 11 
1.483
 21 
1.183
 0 
LINE
 8 
0
 62 
 7 
 10 
1.483
 20 
1.183
 11 
1.475
 21 
1.175
 0 
LINE
 8 
0
 62 
 7 
 10 
1.475
 20 
1.175
 11 
1.45
 21 
1.175
 0 
LINE
 8 
0
 62 
 7 
 10 
1.458
 20 
1.225
 11 
1.458
 21 
1.175
 0 
LINE
 8 
0
 62 
 7 
 10 
1.5
 20 
1.217
 11 
1.508
 21 
1.225
 0 
LINE
 8 
0
 62 
 7 
 10 
1.508
 20 
1.225
 11 
1.525
 21 
1.225
 0 
LINE
 8 
0
 62 
 7 
 10 
1.525
 20 
1.225
 11 
1.533
 21 
1.217
 0 
LINE
 8 
0
 62 
 7 
 10 
1.533
 20 
1.217
 11 
1.533
 21 
1.208
 0 
LINE
 8 
0
 62 
 7 
 10 
1.533
 20 
1.208
 11 
1.525
 21 
1.2
 0 
LINE
 8 
0
 62 
 7 
 10 
1.525
 20 
1.2
 11 
1.508
 21 
1.2
 0 
LINE
 8 
0
 62 
 7 
 10 
1.508
 20 
1.2
 11 
1.5
 21 
1.192
 0 
LINE
 8 
0
 62 
 7 
 10 
1.5
 20 
1.192
 11 
1.5
 21 
1.175
 0 
LINE
 8 
0
 62 
 7 
 10 
1.5
 20 
1.175
 11 
1.533
 21 
1.175
 0 
LINE
 8 
0
 62 
 7 
 10 
0.624
 20 
0.093
 11 
0.763
 21 
0.093
 0 
LINE
 8 
0
 62 
 7 
 10 
0.748
 20 
0.098
 11 
0.748
 21 
0.248
 0 
LINE
 8 
0
 62 
 7 
 10 
0.762
 20 
0.252
 11 
0.623
 21 
0.252
 0 
LINE
 8 
0
 62 
 7 
 10 
0.54
 20 
0.093
 11 
0.403
 21 
0.093
 0 
LINE
 8 
0
 62 
 7 
 10 
0.403
 20 
0.093
 11 
0.403
 21 
0.249
 0 
LINE
 8 
0
 62 
 7 
 10 
0.403
 20 
0.253
 11 
0.538
 21 
0.253
 0 
LINE
 8 
0
 62 
 7 
 10 
0.763
 20 
0.097
 11 
0.763
 21 
0.247
 0 
LINE
 8 
0
 62 
 7 
 10 
0.683
 20 
0.317
 11 
0.675
 21 
0.325
 0 
LINE
 8 
0
 62 
 7 
 10 
0.675
 20 
0.325
 11 
0.658
 21 
0.325
 0 
LINE
 8 
0
 62 
 7 
 10 
0.658
 20 
0.325
 11 
0.65
 21 
0.317
 0 
LINE
 8 
0
 62 
 7 
 10 
0.65
 20 
0.317
 11 
0.65
 21 
0.283
 0 
LINE
 8 
0
 62 
 7 
 10 
0.65
 20 
0.283
 11 
0.658
 21 
0.275
 0 
LINE
 8 
0
 62 
 7 
 10 
0.658
 20 
0.275
 11 
0.675
 21 
0.275
 0 
LINE
 8 
0
 62 
 7 
 10 
0.675
 20 
0.275
 11 
0.683
 21 
0.283
 0 
LINE
 8 
0
 62 
 7 
 10 
0.708
 20 
0.317
 11 
0.717
 21 
0.325
 0 
LINE
 8 
0
 62 
 7 
 10 
0.717
 20 
0.325
 11 
0.717
 21 
0.275
 0 
LINE
 8 
0
 62 
 7 
 10 
0.708
 20 
0.275
 11 
0.725
 21 
0.275
 0 
LINE
 8 
0
 62 
 7 
 10 
0.545
 20 
0.375
 11 
0.647
 21 
0.375
 0 
LINE
 8 
0
 62 
 7 
 10 
0.628
 20 
0.38
 11 
0.628
 21 
0.521
 0 
LINE
 8 
0
 62 
 7 
 10 
0.649
 20 
0.525
 11 
0.544
 21 
0.525
 0 
LINE
 8 
0
 62 
 7 
 10 
0.502
 20 
0.376
 11 
0.418
 21 
0.376
 0 
LINE
 8 
0
 62 
 7 
 10 
0.418
 20 
0.376
 11 
0.418
 21 
0.526
 0 
LINE
 8 
0
 62 
 7 
 10 
0.418
 20 
0.526
 11 
0.5
 21 
0.526
 0 
LINE
 8 
0
 62 
 7 
 10 
0.647
 20 
0.379
 11 
0.647
 21 
0.521
 0 
LINE
 8 
0
 62 
 7 
 10 
0.708
 20 
0.442
 11 
0.7
 21 
0.45
 0 
LINE
 8 
0
 62 
 7 
 10 
0.7
 20 
0.45
 11 
0.683
 21 
0.45
 0 
LINE
 8 
0
 62 
 7 
 10 
0.683
 20 
0.45
 11 
0.675
 21 
0.442
 0 
LINE
 8 
0
 62 
 7 
 10 
0.675
 20 
0.442
 11 
0.675
 21 
0.408
 0 
LINE
 8 
0
 62 
 7 
 10 
0.675
 20 
0.408
 11 
0.683
 21 
0.4
 0 
LINE
 8 
0
 62 
 7 
 10 
0.683
 20 
0.4
 11 
0.7
 21 
0.4
 0 
LINE
 8 
0
 62 
 7 
 10 
0.7
 20 
0.4
 11 
0.708
 21 
0.408
 0 
LINE
 8 
0
 62 
 7 
 10 
0.725
 20 
0.442
 11 
0.733
 21 
0.45
 0 
LINE
 8 
0
 62 
 7 
 10 
0.733
 20 
0.45
 11 
0.75
 21 
0.45
 0 
LINE
 8 
0
 62 
 7 
 10 
0.75
 20 
0.45
 11 
0.758
 21 
0.442
 0 
LINE
 8 
0
 62 
 7 
 10 
0.758
 20 
0.442
 11 
0.758
 21 
0.433
 0 
LINE
 8 
0
 62 
 7 
 10 
0.758
 20 
0.433
 11 
0.75
 21 
0.425
 0 
LINE
 8 
0
 62 
 7 
 10 
0.75
 20 
0.425
 11 
0.733
 21 
0.425
 0 
LINE
 8 
0
 62 
 7 
 10 
0.733
 20 
0.425
 11 
0.725
 21 
0.417
 0 
LINE
 8 
0
 62 
 7 
 10 
0.725
 20 
0.417
 11 
0.725
 21 
0.4
 0 
LINE
 8 
0
 62 
 7 
 10 
0.725
 20 
0.4
 11 
0.758
 21 
0.4
 0 
LINE
 8 
0
 62 
 7 
 10 
1.8
 20 
0.775
 11 
1.822
 21 
0.775
 0 
LINE
 8 
0
 62 
 7 
 10 
1.822
 20 
0.775
 11 
1.83
 21 
0.767
 0 
LINE
 8 
0
 62 
 7 
 10 
1.83
 20 
0.767
 11 
1.83
 21 
0.737
 0 
LINE
 8 
0
 62 
 7 
 10 
1.83
 20 
0.737
 11 
1.822
 21 
0.73
 0 
LINE
 8 
0
 62 
 7 
 10 
1.822
 20 
0.73
 11 
1.8
 21 
0.73
 0 
LINE
 8 
0
 62 
 7 
 10 
1.808
 20 
0.775
 11 
1.808
 21 
0.73
 0 
LINE
 8 
0
 62 
 7 
 10 
1.852
 20 
0.775
 11 
1.868
 21 
0.775
 0 
LINE
 8 
0
 62 
 7 
 10 
1.852
 20 
0.73
 11 
1.868
 21 
0.73
 0 
LINE
 8 
0
 62 
 7 
 10 
1.86
 20 
0.775
 11 
1.86
 21 
0.73
 0 
LINE
 8 
0
 62 
 7 
 10 
1.89
 20 
0.775
 11 
1.89
 21 
0.753
 0 
LINE
 8 
0
 62 
 7 
 10 
1.89
 20 
0.753
 11 
1.905
 21 
0.737
 0 
LINE
 8 
0
 62 
 7 
 10 
1.905
 20 
0.737
 11 
1.92
 21 
0.753
 0 
LINE
 8 
0
 62 
 7 
 10 
1.92
 20 
0.753
 11 
1.92
 21 
0.775
 0 
LINE
 8 
0
 62 
 7 
 10 
1.905
 20 
0.737
 11 
1.905
 21 
0.73
 0 
LINE
 8 
0
 62 
 7 
 10 
1.935
 20 
0.767
 11 
1.942
 21 
0.775
 0 
LINE
 8 
0
 62 
 7 
 10 
1.942
 20 
0.775
 11 
1.958
 21 
0.775
 0 
LINE
 8 
0
 62 
 7 
 10 
1.958
 20 
0.775
 11 
1.965
 21 
0.767
 0 
LINE
 8 
0
 62 
 7 
 10 
1.965
 20 
0.767
 11 
1.965
 21 
0.76
 0 
LINE
 8 
0
 62 
 7 
 10 
1.965
 20 
0.76
 11 
1.958
 21 
0.753
 0 
LINE
 8 
0
 62 
 7 
 10 
1.958
 20 
0.753
 11 
1.95
 21 
0.753
 0 
LINE
 8 
0
 62 
 7 
 10 
1.958
 20 
0.753
 11 
1.965
 21 
0.745
 0 
LINE
 8 
0
 62 
 7 
 10 
1.965
 20 
0.745
 11 
1.965
 21 
0.737
 0 
LINE
 8 
0
 62 
 7 
 10 
1.965
 20 
0.737
 11 
1.958
 21 
0.73
 0 
LINE
 8 
0
 62 
 7 
 10 
1.958
 20 
0.73
 11 
1.942
 21 
0.73
 0 
LINE
 8 
0
 62 
 7 
 10 
1.942
 20 
0.73
 11 
1.935
 21 
0.737
 0 
LINE
 8 
0
 62 
 7 
 10 
1.84
 20 
0.675
 11 
1.84
 21 
0.63
 0 
LINE
 8 
0
 62 
 7 
 10 
1.825
 20 
0.667
 11 
1.855
 21 
0.637
 0 
LINE
 8 
0
 62 
 7 
 10 
1.855
 20 
0.667
 11 
1.825
 21 
0.637
 0 
LINE
 8 
0
 62 
 7 
 10 
1.87
 20 
0.63
 11 
1.87
 21 
0.675
 0 
LINE
 8 
0
 62 
 7 
 10 
1.87
 20 
0.675
 11 
1.885
 21 
0.66
 0 
LINE
 8 
0
 62 
 7 
 10 
1.885
 20 
0.66
 11 
1.885
 21 
0.653
 0 
LINE
 8 
0
 62 
 7 
 10 
1.885
 20 
0.66
 11 
1.9
 21 
0.675
 0 
LINE
 8 
0
 62 
 7 
 10 
1.9
 20 
0.675
 11 
1.9
 21 
0.63
 0 
LINE
 8 
0
 62 
 7 
 10 
1.915
 20 
0.63
 11 
1.915
 21 
0.675
 0 
LINE
 8 
0
 62 
 7 
 10 
1.915
 20 
0.675
 11 
1.937
 21 
0.675
 0 
LINE
 8 
0
 62 
 7 
 10 
1.937
 20 
0.675
 11 
1.945
 21 
0.667
 0 
LINE
 8 
0
 62 
 7 
 10 
1.945
 20 
0.667
 11 
1.945
 21 
0.66
 0 
LINE
 8 
0
 62 
 7 
 10 
1.945
 20 
0.66
 11 
1.937
 21 
0.653
 0 
LINE
 8 
0
 62 
 7 
 10 
1.937
 20 
0.653
 11 
1.915
 21 
0.653
 0 
LINE
 8 
0
 62 
 7 
 10 
1.923
 20 
0.653
 11 
1.945
 21 
0.63
 0 
LINE
 8 
0
 62 
 7 
 10 
1.84
 20 
0.575
 11 
1.84
 21 
0.53
 0 
LINE
 8 
0
 62 
 7 
 10 
1.825
 20 
0.567
 11 
1.855
 21 
0.537
 0 
LINE
 8 
0
 62 
 7 
 10 
1.855
 20 
0.567
 11 
1.825
 21 
0.537
 0 
LINE
 8 
0
 62 
 7 
 10 
1.9
 20 
0.575
 11 
1.87
 21 
0.575
 0 
LINE
 8 
0
 62 
 7 
 10 
1.87
 20 
0.575
 11 
1.87
 21 
0.53
 0 
LINE
 8 
0
 62 
 7 
 10 
1.87
 20 
0.53
 11 
1.9
 21 
0.53
 0 
LINE
 8 
0
 62 
 7 
 10 
1.87
 20 
0.553
 11 
1.893
 21 
0.553
 0 
LINE
 8 
0
 62 
 7 
 10 
1.915
 20 
0.53
 11 
1.915
 21 
0.575
 0 
LINE
 8 
0
 62 
 7 
 10 
1.915
 20 
0.575
 11 
1.945
 21 
0.545
 0 
LINE
 8 
0
 62 
 7 
 10 
1.945
 20 
0.575
 11 
1.945
 21 
0.53
 0 
LINE
 8 
0
 62 
 7 
 10 
1.855
 20 
0.467
 11 
1.847
 21 
0.475
 0 
LINE
 8 
0
 62 
 7 
 10 
1.847
 20 
0.475
 11 
1.833
 21 
0.475
 0 
LINE
 8 
0
 62 
 7 
 10 
1.833
 20 
0.475
 11 
1.825
 21 
0.467
 0 
LINE
 8 
0
 62 
 7 
 10 
1.825
 20 
0.467
 11 
1.825
 21 
0.437
 0 
LINE
 8 
0
 62 
 7 
 10 
1.825
 20 
0.437
 11 
1.833
 21 
0.43
 0 
LINE
 8 
0
 62 
 7 
 10 
1.833
 20 
0.43
 11 
1.847
 21 
0.43
 0 
LINE
 8 
0
 62 
 7 
 10 
1.847
 20 
0.43
 11 
1.855
 21 
0.437
 0 
LINE
 8 
0
 62 
 7 
 10 
1.855
 20 
0.437
 11 
1.855
 21 
0.467
 0 
LINE
 8 
0
 62 
 7 
 10 
1.87
 20 
0.475
 11 
1.87
 21 
0.437
 0 
LINE
 8 
0
 62 
 7 
 10 
1.87
 20 
0.437
 11 
1.877
 21 
0.43
 0 
LINE
 8 
0
 62 
 7 
 10 
1.877
 20 
0.43
 11 
1.893
 21 
0.43
 0 
LINE
 8 
0
 62 
 7 
 10 
1.893
 20 
0.43
 11 
1.9
 21 
0.437
 0 
LINE
 8 
0
 62 
 7 
 10 
1.9
 20 
0.437
 11 
1.9
 21 
0.475
 0 
LINE
 8 
0
 62 
 7 
 10 
1.915
 20 
0.475
 11 
1.945
 21 
0.475
 0 
LINE
 8 
0
 62 
 7 
 10 
1.93
 20 
0.475
 11 
1.93
 21 
0.43
 0 
LINE
 8 
0
 62 
 7 
 10 
0.4
 20 
1.5
 11 
0.4
 21 
1.533
 0 
LINE
 8 
0
 62 
 7 
 10 
0.4
 20 
1.533
 11 
0.417
 21 
1.55
 0 
LINE
 8 
0
 62 
 7 
 10 
0.417
 20 
1.55
 11 
0.433
 21 
1.533
 0 
LINE
 8 
0
 62 
 7 
 10 
0.433
 20 
1.533
 11 
0.433
 21 
1.5
 0 
LINE
 8 
0
 62 
 7 
 10 
0.4
 20 
1.517
 11 
0.433
 21 
1.517
 0 
LINE
 8 
0
 62 
 7 
 10 
0.458
 20 
1.55
 11 
0.467
 21 
1.55
 0 
LINE
 8 
0
 62 
 7 
 10 
0.467
 20 
1.55
 11 
0.467
 21 
1.5
 0 
LINE
 8 
0
 62 
 7 
 10 
0.458
 20 
1.5
 11 
0.475
 21 
1.5
 0 
LINE
 8 
0
 62 
 7 
 10 
0.508
 20 
1.55
 11 
0.517
 21 
1.55
 0 
LINE
 8 
0
 62 
 7 
 10 
0.517
 20 
1.55
 11 
0.517
 21 
1.5
 0 
LINE
 8 
0
 62 
 7 
 10 
0.508
 20 
1.5
 11 
0.525
 21 
1.5
 0 
LINE
 8 
0
 62 
 7 
 10 
0.567
 20 
1.55
 11 
0.567
 21 
1.542
 0 
LINE
 8 
0
 62 
 7 
 10 
0.558
 20 
1.5
 11 
0.575
 21 
1.5
 0 
LINE
 8 
0
 62 
 7 
 10 
0.558
 20 
1.525
 11 
0.567
 21 
1.525
 0 
LINE
 8 
0
 62 
 7 
 10 
0.567
 20 
1.525
 11 
0.567
 21 
1.5
 0 
LINE
 8 
0
 62 
 7 
 10 
0.608
 20 
1.533
 11 
0.625
 21 
1.533
 0 
LINE
 8 
0
 62 
 7 
 10 
0.625
 20 
1.533
 11 
0.633
 21 
1.525
 0 
LINE
 8 
0
 62 
 7 
 10 
0.633
 20 
1.525
 11 
0.633
 21 
1.5
 0 
LINE
 8 
0
 62 
 7 
 10 
0.633
 20 
1.517
 11 
0.608
 21 
1.517
 0 
LINE
 8 
0
 62 
 7 
 10 
0.608
 20 
1.517
 11 
0.6
 21 
1.508
 0 
LINE
 8 
0
 62 
 7 
 10 
0.6
 20 
1.508
 11 
0.608
 21 
1.5
 0 
LINE
 8 
0
 62 
 7 
 10 
0.608
 20 
1.5
 11 
0.625
 21 
1.5
 0 
LINE
 8 
0
 62 
 7 
 10 
0.625
 20 
1.5
 11 
0.633
 21 
1.508
 0 
LINE
 8 
0
 62 
 7 
 10 
0.65
 20 
1.533
 11 
0.65
 21 
1.5
 0 
LINE
 8 
0
 62 
 7 
 10 
0.65
 20 
1.517
 11 
0.667
 21 
1.533
 0 
LINE
 8 
0
 62 
 7 
 10 
0.667
 20 
1.533
 11 
0.675
 21 
1.533
 0 
LINE
 8 
0
 62 
 7 
 10 
0.675
 20 
1.533
 11 
0.683
 21 
1.525
 0 
LINE
 8 
0
 62 
 7 
 10 
0.683
 20 
1.525
 11 
0.683
 21 
1.5
 0 
LINE
 8 
0
 62 
 7 
 10 
0.733
 20 
1.525
 11 
0.725
 21 
1.533
 0 
LINE
 8 
0
 62 
 7 
 10 
0.725
 20 
1.533
 11 
0.708
 21 
1.533
 0 
LINE
 8 
0
 62 
 7 
 10 
0.708
 20 
1.533
 11 
0.7
 21 
1.525
 0 
LINE
 8 
0
 62 
 7 
 10 
0.7
 20 
1.525
 11 
0.7
 21 
1.508
 0 
LINE
 8 
0
 62 
 7 
 10 
0.7
 20 
1.508
 11 
0.708
 21 
1.5
 0 
LINE
 8 
0
 62 
 7 
 10 
0.708
 20 
1.5
 11 
0.725
 21 
1.5
 0 
LINE
 8 
0
 62 
 7 
 10 
0.725
 20 
1.5
 11 
0.733
 21 
1.508
 0 
LINE
 8 
0
 62 
 7 
 10 
0.75
 20 
1.517
 11 
0.783
 21 
1.517
 0 
LINE
 8 
0
 62 
 7 
 10 
0.783
 20 
1.517
 11 
0.783
 21 
1.525
 0 
LINE
 8 
0
 62 
 7 
 10 
0.783
 20 
1.525
 11 
0.775
 21 
1.533
 0 
LINE
 8 
0
 62 
 7 
 10 
0.775
 20 
1.533
 11 
0.758
 21 
1.533
 0 
LINE
 8 
0
 62 
 7 
 10 
0.758
 20 
1.533
 11 
0.75
 21 
1.525
 0 
LINE
 8 
0
 62 
 7 
 10 
0.75
 20 
1.525
 11 
0.75
 21 
1.508
 0 
LINE
 8 
0
 62 
 7 
 10 
0.75
 20 
1.508
 11 
0.758
 21 
1.5
 0 
LINE
 8 
0
 62 
 7 
 10 
0.758
 20 
1.5
 11 
0.775
 21 
1.5
 0 
LINE
 8 
0
 62 
 7 
 10 
0.883
 20 
1.542
 11 
0.875
 21 
1.55
 0 
LINE
 8 
0
 62 
 7 
 10 
0.875
 20 
1.55
 11 
0.858
 21 
1.55
 0 
LINE
 8 
0
 62 
 7 
 10 
0.858
 20 
1.55
 11 
0.85
 21 
1.542
 0 
LINE
 8 
0
 62 
 7 
 10 
0.85
 20 
1.542
 11 
0.85
 21 
1.533
 0 
LINE
 8 
0
 62 
 7 
 10 
0.85
 20 
1.533
 11 
0.858
 21 
1.525
 0 
LINE
 8 
0
 62 
 7 
 10 
0.858
 20 
1.525
 11 
0.875
 21 
1.525
 0 
LINE
 8 
0
 62 
 7 
 10 
0.875
 20 
1.525
 11 
0.883
 21 
1.517
 0 
LINE
 8 
0
 62 
 7 
 10 
0.883
 20 
1.517
 11 
0.883
 21 
1.508
 0 
LINE
 8 
0
 62 
 7 
 10 
0.883
 20 
1.508
 11 
0.875
 21 
1.5
 0 
LINE
 8 
0
 62 
 7 
 10 
0.875
 20 
1.5
 11 
0.858
 21 
1.5
 0 
LINE
 8 
0
 62 
 7 
 10 
0.858
 20 
1.5
 11 
0.85
 21 
1.508
 0 
LINE
 8 
0
 62 
 7 
 10 
0.9
 20 
1.533
 11 
0.9
 21 
1.508
 0 
LINE
 8 
0
 62 
 7 
 10 
0.9
 20 
1.508
 11 
0.908
 21 
1.5
 0 
LINE
 8 
0
 62 
 7 
 10 
0.908
 20 
1.5
 11 
0.917
 21 
1.5
 0 
LINE
 8 
0
 62 
 7 
 10 
0.917
 20 
1.5
 11 
0.933
 21 
1.517
 0 
LINE
 8 
0
 62 
 7 
 10 
0.933
 20 
1.533
 11 
0.933
 21 
1.5
 0 
LINE
 8 
0
 62 
 7 
 10 
0.95
 20 
1.533
 11 
0.95
 21 
1.483
 0 
LINE
 8 
0
 62 
 7 
 10 
0.95
 20 
1.525
 11 
0.958
 21 
1.533
 0 
LINE
 8 
0
 62 
 7 
 10 
0.958
 20 
1.533
 11 
0.975
 21 
1.533
 0 
LINE
 8 
0
 62 
 7 
 10 
0.975
 20 
1.533
 11 
0.983
 21 
1.525
 0 
LINE
 8 
0
 62 
 7 
 10 
0.983
 20 
1.525
 11 
0.983
 21 
1.508
 0 
LINE
 8 
0
 62 
 7 
 10 
0.983
 20 
1.508
 11 
0.975
 21 
1.5
 0 
LINE
 8 
0
 62 
 7 
 10 
0.975
 20 
1.5
 11 
0.967
 21 
1.5
 0 
LINE
 8 
0
 62 
 7 
 10 
0.967
 20 
1.5
 11 
0.95
 21 
1.517
 0 
LINE
 8 
0
 62 
 7 
 10 
1.0
 20 
1.533
 11 
1.0
 21 
1.483
 0 
LINE
 8 
0
 62 
 7 
 10 
1.0
 20 
1.525
 11 
1.008
 21 
1.533
 0 
LINE
 8 
0
 62 
 7 
 10 
1.008
 20 
1.533
 11 
1.025
 21 
1.533
 0 
LINE
 8 
0
 62 
 7 
 10 
1.025
 20 
1.533
 11 
1.033
 21 
1.525
 0 
LINE
 8 
0
 62 
 7 
 10 
1.033
 20 
1.525
 11 
1.033
 21 
1.508
 0 
LINE
 8 
0
 62 
 7 
 10 
1.033
 20 
1.508
 11 
1.025
 21 
1.5
 0 
LINE
 8 
0
 62 
 7 
 10 
1.025
 20 
1.5
 11 
1.017
 21 
1.5
 0 
LINE
 8 
0
 62 
 7 
 10 
1.017
 20 
1.5
 11 
1.0
 21 
1.517
 0 
LINE
 8 
0
 62 
 7 
 10 
1.083
 20 
1.525
 11 
1.075
 21 
1.533
 0 
LINE
 8 
0
 62 
 7 
 10 
1.075
 20 
1.533
 11 
1.058
 21 
1.533
 0 
LINE
 8 
0
 62 
 7 
 10 
1.058
 20 
1.533
 11 
1.05
 21 
1.525
 0 
LINE
 8 
0
 62 
 7 
 10 
1.05
 20 
1.525
 11 
1.05
 21 
1.508
 0 
LINE
 8 
0
 62 
 7 
 10 
1.05
 20 
1.508
 11 
1.058
 21 
1.5
 0 
LINE
 8 
0
 62 
 7 
 10 
1.058
 20 
1.5
 11 
1.075
 21 
1.5
 0 
LINE
 8 
0
 62 
 7 
 10 
1.075
 20 
1.5
 11 
1.083
 21 
1.508
 0 
LINE
 8 
0
 62 
 7 
 10 
1.083
 20 
1.508
 11 
1.083
 21 
1.525
 0 
LINE
 8 
0
 62 
 7 
 10 
1.1
 20 
1.533
 11 
1.1
 21 
1.5
 0 
LINE
 8 
0
 62 
 7 
 10 
1.1
 20 
1.517
 11 
1.117
 21 
1.533
 0 
LINE
 8 
0
 62 
 7 
 10 
1.117
 20 
1.533
 11 
1.125
 21 
1.533
 0 
LINE
 8 
0
 62 
 7 
 10 
1.125
 20 
1.533
 11 
1.133
 21 
1.525
 0 
LINE
 8 
0
 62 
 7 
 10 
1.158
 20 
1.55
 11 
1.158
 21 
1.508
 0 
LINE
 8 
0
 62 
 7 
 10 
1.158
 20 
1.508
 11 
1.167
 21 
1.5
 0 
LINE
 8 
0
 62 
 7 
 10 
1.167
 20 
1.5
 11 
1.175
 21 
1.5
 0 
LINE
 8 
0
 62 
 7 
 10 
1.175
 20 
1.5
 11 
1.183
 21 
1.508
 0 
LINE
 8 
0
 62 
 7 
 10 
1.15
 20 
1.533
 11 
1.175
 21 
1.533
 0 
LINE
 8 
0
 62 
 7 
 10 
1.25
 20 
1.5
 11 
1.25
 21 
1.55
 0 
LINE
 8 
0
 62 
 7 
 10 
1.25
 20 
1.55
 11 
1.275
 21 
1.55
 0 
LINE
 8 
0
 62 
 7 
 10 
1.275
 20 
1.55
 11 
1.283
 21 
1.542
 0 
LINE
 8 
0
 62 
 7 
 10 
1.283
 20 
1.542
 11 
1.283
 21 
1.533
 0 
LINE
 8 
0
 62 
 7 
 10 
1.283
 20 
1.533
 11 
1.275
 21 
1.525
 0 
LINE
 8 
0
 62 
 7 
 10 
1.275
 20 
1.525
 11 
1.25
 21 
1.525
 0 
LINE
 8 
0
 62 
 7 
 10 
1.308
 20 
1.533
 11 
1.325
 21 
1.533
 0 
LINE
 8 
0
 62 
 7 
 10 
1.325
 20 
1.533
 11 
1.333
 21 
1.525
 0 
LINE
 8 
0
 62 
 7 
 10 
1.333
 20 
1.525
 11 
1.333
 21 
1.5
 0 
LINE
 8 
0
 62 
 7 
 10 
1.333
 20 
1.517
 11 
1.308
 21 
1.517
 0 
LINE
 8 
0
 62 
 7 
 10 
1.308
 20 
1.517
 11 
1.3
 21 
1.508
 0 
LINE
 8 
0
 62 
 7 
 10 
1.3
 20 
1.508
 11 
1.308
 21 
1.5
 0 
LINE
 8 
0
 62 
 7 
 10 
1.308
 20 
1.5
 11 
1.325
 21 
1.5
 0 
LINE
 8 
0
 62 
 7 
 10 
1.325
 20 
1.5
 11 
1.333
 21 
1.508
 0 
LINE
 8 
0
 62 
 7 
 10 
1.35
 20 
1.533
 11 
1.35
 21 
1.5
 0 
LINE
 8 
0
 62 
 7 
 10 
1.35
 20 
1.517
 11 
1.367
 21 
1.533
 0 
LINE
 8 
0
 62 
 7 
 10 
1.367
 20 
1.533
 11 
1.375
 21 
1.533
 0 
LINE
 8 
0
 62 
 7 
 10 
1.375
 20 
1.533
 11 
1.383
 21 
1.525
 0 
LINE
 8 
0
 62 
 7 
 10 
1.408
 20 
1.55
 11 
1.408
 21 
1.508
 0 
LINE
 8 
0
 62 
 7 
 10 
1.408
 20 
1.508
 11 
1.417
 21 
1.5
 0 
LINE
 8 
0
 62 
 7 
 10 
1.417
 20 
1.5
 11 
1.425
 21 
1.5
 0 
LINE
 8 
0
 62 
 7 
 10 
1.425
 20 
1.5
 11 
1.433
 21 
1.508
 0 
LINE
 8 
0
 62 
 7 
 10 
1.4
 20 
1.533
 11 
1.425
 21 
1.533
 0 
LINE
 8 
0
 62 
 7 
 10 
1.45
 20 
1.533
 11 
1.45
 21 
1.5
 0 
LINE
 8 
0
 62 
 7 
 10 
1.45
 20 
1.517
 11 
1.467
 21 
1.533
 0 
LINE
 8 
0
 62 
 7 
 10 
1.467
 20 
1.533
 11 
1.475
 21 
1.533
 0 
LINE
 8 
0
 62 
 7 
 10 
1.475
 20 
1.533
 11 
1.483
 21 
1.525
 0 
LINE
 8 
0
 62 
 7 
 10 
1.483
 20 
1.525
 11 
1.483
 21 
1.5
 0 
LINE
 8 
0
 62 
 7 
 10 
1.5
 20 
1.517
 11 
1.533
 21 
1.517
 0 
LINE
 8 
0
 62 
 7 
 10 
1.533
 20 
1.517
 11 
1.533
 21 
1.525
 0 
LINE
 8 
0
 62 
 7 
 10 
1.533
 20 
1.525
 11 
1.525
 21 
1.533
 0 
LINE
 8 
0
 62 
 7 
 10 
1.525
 20 
1.533
 11 
1.508
 21 
1.533
 0 
LINE
 8 
0
 62 
 7 
 10 
1.508
 20 
1.533
 11 
1.5
 21 
1.525
 0 
LINE
 8 
0
 62 
 7 
 10 
1.5
 20 
1.525
 11 
1.5
 21 
1.508
 0 
LINE
 8 
0
 62 
 7 
 10 
1.5
 20 
1.508
 11 
1.508
 21 
1.5
 0 
LINE
 8 
0
 62 
 7 
 10 
1.508
 20 
1.5
 11 
1.525
 21 
1.5
 0 
LINE
 8 
0
 62 
 7 
 10 
1.55
 20 
1.533
 11 
1.55
 21 
1.5
 0 
LINE
 8 
0
 62 
 7 
 10 
1.55
 20 
1.517
 11 
1.567
 21 
1.533
 0 
LINE
 8 
0
 62 
 7 
 10 
1.567
 20 
1.533
 11 
1.575
 21 
1.533
 0 
LINE
 8 
0
 62 
 7 
 10 
1.575
 20 
1.533
 11 
1.583
 21 
1.525
 0 
LINE
 8 
0
 62 
 7 
 10 
1.633
 20 
1.533
 11 
1.608
 21 
1.533
 0 
LINE
 8 
0
 62 
 7 
 10 
1.608
 20 
1.533
 11 
1.6
 21 
1.525
 0 
LINE
 8 
0
 62 
 7 
 10 
1.6
 20 
1.525
 11 
1.608
 21 
1.517
 0 
LINE
 8 
0
 62 
 7 
 10 
1.608
 20 
1.517
 11 
1.625
 21 
1.517
 0 
LINE
 8 
0
 62 
 7 
 10 
1.625
 20 
1.517
 11 
1.633
 21 
1.508
 0 
LINE
 8 
0
 62 
 7 
 10 
1.633
 20 
1.508
 11 
1.625
 21 
1.5
 0 
LINE
 8 
0
 62 
 7 
 10 
1.625
 20 
1.5
 11 
1.6
 21 
1.5
 0 
LINE
 8 
0
 62 
 7 
 10 
0.433
 20 
1.442
 11 
0.425
 21 
1.45
 0 
LINE
 8 
0
 62 
 7 
 10 
0.425
 20 
1.45
 11 
0.408
 21 
1.45
 0 
LINE
 8 
0
 62 
 7 
 10 
0.408
 20 
1.45
 11 
0.4
 21 
1.442
 0 
LINE
 8 
0
 62 
 7 
 10 
0.4
 20 
1.442
 11 
0.4
 21 
1.408
 0 
LINE
 8 
0
 62 
 7 
 10 
0.4
 20 
1.408
 11 
0.408
 21 
1.4
 0 
LINE
 8 
0
 62 
 7 
 10 
0.408
 20 
1.4
 11 
0.425
 21 
1.4
 0 
LINE
 8 
0
 62 
 7 
 10 
0.425
 20 
1.4
 11 
0.433
 21 
1.408
 0 
LINE
 8 
0
 62 
 7 
 10 
0.458
 20 
1.45
 11 
0.467
 21 
1.45
 0 
LINE
 8 
0
 62 
 7 
 10 
0.467
 20 
1.45
 11 
0.467
 21 
1.4
 0 
LINE
 8 
0
 62 
 7 
 10 
0.458
 20 
1.4
 11 
0.475
 21 
1.4
 0 
LINE
 8 
0
 62 
 7 
 10 
0.533
 20 
1.425
 11 
0.525
 21 
1.433
 0 
LINE
 8 
0
 62 
 7 
 10 
0.525
 20 
1.433
 11 
0.508
 21 
1.433
 0 
LINE
 8 
0
 62 
 7 
 10 
0.508
 20 
1.433
 11 
0.5
 21 
1.425
 0 
LINE
 8 
0
 62 
 7 
 10 
0.5
 20 
1.425
 11 
0.5
 21 
1.408
 0 
LINE
 8 
0
 62 
 7 
 10 
0.5
 20 
1.408
 11 
0.508
 21 
1.4
 0 
LINE
 8 
0
 62 
 7 
 10 
0.508
 20 
1.4
 11 
0.525
 21 
1.4
 0 
LINE
 8 
0
 62 
 7 
 10 
0.525
 20 
1.4
 11 
0.533
 21 
1.408
 0 
LINE
 8 
0
 62 
 7 
 10 
0.533
 20 
1.408
 11 
0.533
 21 
1.425
 0 
LINE
 8 
0
 62 
 7 
 10 
0.583
 20 
1.425
 11 
0.575
 21 
1.433
 0 
LINE
 8 
0
 62 
 7 
 10 
0.575
 20 
1.433
 11 
0.558
 21 
1.433
 0 
LINE
 8 
0
 62 
 7 
 10 
0.558
 20 
1.433
 11 
0.55
 21 
1.425
 0 
LINE
 8 
0
 62 
 7 
 10 
0.55
 20 
1.425
 11 
0.55
 21 
1.408
 0 
LINE
 8 
0
 62 
 7 
 10 
0.55
 20 
1.408
 11 
0.558
 21 
1.4
 0 
LINE
 8 
0
 62 
 7 
 10 
0.558
 20 
1.4
 11 
0.575
 21 
1.4
 0 
LINE
 8 
0
 62 
 7 
 10 
0.575
 20 
1.4
 11 
0.583
 21 
1.408
 0 
LINE
 8 
0
 62 
 7 
 10 
0.6
 20 
1.45
 11 
0.608
 21 
1.45
 0 
LINE
 8 
0
 62 
 7 
 10 
0.608
 20 
1.45
 11 
0.608
 21 
1.4
 0 
LINE
 8 
0
 62 
 7 
 10 
0.633
 20 
1.433
 11 
0.617
 21 
1.417
 0 
LINE
 8 
0
 62 
 7 
 10 
0.617
 20 
1.417
 11 
0.633
 21 
1.4
 0 
LINE
 8 
0
 62 
 7 
 10 
0.608
 20 
1.417
 11 
0.617
 21 
1.417
 0 
LINE
 8 
0
 62 
 7 
 10 
0.7
 20 
1.45
 11 
0.725
 21 
1.45
 0 
LINE
 8 
0
 62 
 7 
 10 
0.725
 20 
1.45
 11 
0.733
 21 
1.442
 0 
LINE
 8 
0
 62 
 7 
 10 
0.733
 20 
1.442
 11 
0.733
 21 
1.408
 0 
LINE
 8 
0
 62 
 7 
 10 
0.733
 20 
1.408
 11 
0.725
 21 
1.4
 0 
LINE
 8 
0
 62 
 7 
 10 
0.725
 20 
1.4
 11 
0.7
 21 
1.4
 0 
LINE
 8 
0
 62 
 7 
 10 
0.708
 20 
1.45
 11 
0.708
 21 
1.4
 0 
LINE
 8 
0
 62 
 7 
 10 
0.767
 20 
1.45
 11 
0.767
 21 
1.442
 0 
LINE
 8 
0
 62 
 7 
 10 
0.758
 20 
1.4
 11 
0.775
 21 
1.4
 0 
LINE
 8 
0
 62 
 7 
 10 
0.758
 20 
1.425
 11 
0.767
 21 
1.425
 0 
LINE
 8 
0
 62 
 7 
 10 
0.767
 20 
1.425
 11 
0.767
 21 
1.4
 0 
LINE
 8 
0
 62 
 7 
 10 
0.8
 20 
1.433
 11 
0.8
 21 
1.417
 0 
LINE
 8 
0
 62 
 7 
 10 
0.8
 20 
1.417
 11 
0.817
 21 
1.4
 0 
LINE
 8 
0
 62 
 7 
 10 
0.817
 20 
1.4
 11 
0.833
 21 
1.417
 0 
LINE
 8 
0
 62 
 7 
 10 
0.833
 20 
1.417
 11 
0.833
 21 
1.433
 0 
LINE
 8 
0
 62 
 7 
 10 
0.867
 20 
1.45
 11 
0.867
 21 
1.442
 0 
LINE
 8 
0
 62 
 7 
 10 
0.858
 20 
1.4
 11 
0.875
 21 
1.4
 0 
LINE
 8 
0
 62 
 7 
 10 
0.858
 20 
1.425
 11 
0.867
 21 
1.425
 0 
LINE
 8 
0
 62 
 7 
 10 
0.867
 20 
1.425
 11 
0.867
 21 
1.4
 0 
LINE
 8 
0
 62 
 7 
 10 
0.925
 20 
1.45
 11 
0.933
 21 
1.45
 0 
LINE
 8 
0
 62 
 7 
 10 
0.933
 20 
1.45
 11 
0.933
 21 
1.4
 0 
LINE
 8 
0
 62 
 7 
 10 
0.933
 20 
1.425
 11 
0.925
 21 
1.433
 0 
LINE
 8 
0
 62 
 7 
 10 
0.925
 20 
1.433
 11 
0.908
 21 
1.433
 0 
LINE
 8 
0
 62 
 7 
 10 
0.908
 20 
1.433
 11 
0.9
 21 
1.425
 0 
LINE
 8 
0
 62 
 7 
 10 
0.9
 20 
1.425
 11 
0.9
 21 
1.408
 0 
LINE
 8 
0
 62 
 7 
 10 
0.9
 20 
1.408
 11 
0.908
 21 
1.4
 0 
LINE
 8 
0
 62 
 7 
 10 
0.908
 20 
1.4
 11 
0.917
 21 
1.4
 0 
LINE
 8 
0
 62 
 7 
 10 
0.917
 20 
1.4
 11 
0.933
 21 
1.417
 0 
LINE
 8 
0
 62 
 7 
 10 
0.95
 20 
1.417
 11 
0.983
 21 
1.417
 0 
LINE
 8 
0
 62 
 7 
 10 
0.983
 20 
1.417
 11 
0.983
 21 
1.425
 0 
LINE
 8 
0
 62 
 7 
 10 
0.983
 20 
1.425
 11 
0.975
 21 
1.433
 0 
LINE
 8 
0
 62 
 7 
 10 
0.975
 20 
1.433
 11 
0.958
 21 
1.433
 0 
LINE
 8 
0
 62 
 7 
 10 
0.958
 20 
1.433
 11 
0.95
 21 
1.425
 0 
LINE
 8 
0
 62 
 7 
 10 
0.95
 20 
1.425
 11 
0.95
 21 
1.408
 0 
LINE
 8 
0
 62 
 7 
 10 
0.95
 20 
1.408
 11 
0.958
 21 
1.4
 0 
LINE
 8 
0
 62 
 7 
 10 
0.958
 20 
1.4
 11 
0.975
 21 
1.4
 0 
LINE
 8 
0
 62 
 7 
 10 
1.0
 20 
1.433
 11 
1.0
 21 
1.4
 0 
LINE
 8 
0
 62 
 7 
 10 
1.0
 20 
1.417
 11 
1.017
 21 
1.433
 0 
LINE
 8 
0
 62 
 7 
 10 
1.017
 20 
1.433
 11 
1.025
 21 
1.433
 0 
LINE
 8 
0
 62 
 7 
 10 
1.025
 20 
1.433
 11 
1.033
 21 
1.425
 0 
LINE
 8 
0
 62 
 7 
 10 
0.4
 20 
1.3
 11 
0.4
 21 
1.333
 0 
LINE
 8 
0
 62 
 7 
 10 
0.4
 20 
1.333
 11 
0.417
 21 
1.35
 0 
LINE
 8 
0
 62 
 7 
 10 
0.417
 20 
1.35
 11 
0.433
 21 
1.333
 0 
LINE
 8 
0
 62 
 7 
 10 
0.433
 20 
1.333
 11 
0.433
 21 
1.3
 0 
LINE
 8 
0
 62 
 7 
 10 
0.4
 20 
1.317
 11 
0.433
 21 
1.317
 0 
LINE
 8 
0
 62 
 7 
 10 
0.483
 20 
1.342
 11 
0.475
 21 
1.35
 0 
LINE
 8 
0
 62 
 7 
 10 
0.475
 20 
1.35
 11 
0.458
 21 
1.35
 0 
LINE
 8 
0
 62 
 7 
 10 
0.458
 20 
1.35
 11 
0.45
 21 
1.342
 0 
LINE
 8 
0
 62 
 7 
 10 
0.45
 20 
1.342
 11 
0.45
 21 
1.333
 0 
LINE
 8 
0
 62 
 7 
 10 
0.45
 20 
1.333
 11 
0.458
 21 
1.325
 0 
LINE
 8 
0
 62 
 7 
 10 
0.458
 20 
1.325
 11 
0.475
 21 
1.325
 0 
LINE
 8 
0
 62 
 7 
 10 
0.475
 20 
1.325
 11 
0.483
 21 
1.317
 0 
LINE
 8 
0
 62 
 7 
 10 
0.483
 20 
1.317
 11 
0.483
 21 
1.308
 0 
LINE
 8 
0
 62 
 7 
 10 
0.483
 20 
1.308
 11 
0.475
 21 
1.3
 0 
LINE
 8 
0
 62 
 7 
 10 
0.475
 20 
1.3
 11 
0.458
 21 
1.3
 0 
LINE
 8 
0
 62 
 7 
 10 
0.458
 20 
1.3
 11 
0.45
 21 
1.308
 0 
LINE
 8 
0
 62 
 7 
 10 
0.5
 20 
1.3
 11 
0.5
 21 
1.35
 0 
LINE
 8 
0
 62 
 7 
 10 
0.5
 20 
1.35
 11 
0.525
 21 
1.35
 0 
LINE
 8 
0
 62 
 7 
 10 
0.525
 20 
1.35
 11 
0.533
 21 
1.342
 0 
LINE
 8 
0
 62 
 7 
 10 
0.533
 20 
1.342
 11 
0.533
 21 
1.333
 0 
LINE
 8 
0
 62 
 7 
 10 
0.533
 20 
1.333
 11 
0.525
 21 
1.325
 0 
LINE
 8 
0
 62 
 7 
 10 
0.525
 20 
1.325
 11 
0.5
 21 
1.325
 0 
LINE
 8 
0
 62 
 7 
 10 
0.55
 20 
1.325
 11 
0.583
 21 
1.325
 0 
LINE
 8 
0
 62 
 7 
 10 
0.633
 20 
1.342
 11 
0.625
 21 
1.35
 0 
LINE
 8 
0
 62 
 7 
 10 
0.625
 20 
1.35
 11 
0.608
 21 
1.35
 0 
LINE
 8 
0
 62 
 7 
 10 
0.608
 20 
1.35
 11 
0.6
 21 
1.342
 0 
LINE
 8 
0
 62 
 7 
 10 
0.6
 20 
1.342
 11 
0.6
 21 
1.308
 0 
LINE
 8 
0
 62 
 7 
 10 
0.6
 20 
1.308
 11 
0.608
 21 
1.3
 0 
LINE
 8 
0
 62 
 7 
 10 
0.608
 20 
1.3
 11 
0.625
 21 
1.3
 0 
LINE
 8 
0
 62 
 7 
 10 
0.625
 20 
1.3
 11 
0.633
 21 
1.308
 0 
LINE
 8 
0
 62 
 7 
 10 
0.65
 20 
1.35
 11 
0.65
 21 
1.3
 0 
LINE
 8 
0
 62 
 7 
 10 
0.65
 20 
1.3
 11 
0.683
 21 
1.3
 0 
LINE
 8 
0
 62 
 7 
 10 
0.7
 20 
1.35
 11 
0.7
 21 
1.3
 0 
LINE
 8 
0
 62 
 7 
 10 
0.733
 20 
1.35
 11 
0.708
 21 
1.325
 0 
LINE
 8 
0
 62 
 7 
 10 
0.7
 20 
1.325
 11 
0.708
 21 
1.325
 0 
LINE
 8 
0
 62 
 7 
 10 
0.708
 20 
1.325
 11 
0.733
 21 
1.3
 0 
LINE
 8 
0
 62 
 7 
 10 
0.75
 20 
1.325
 11 
0.783
 21 
1.325
 0 
LINE
 8 
0
 62 
 7 
 10 
0.8
 20 
1.308
 11 
0.8
 21 
1.342
 0 
LINE
 8 
0
 62 
 7 
 10 
0.8
 20 
1.342
 11 
0.808
 21 
1.35
 0 
LINE
 8 
0
 62 
 7 
 10 
0.808
 20 
1.35
 11 
0.825
 21 
1.35
 0 
LINE
 8 
0
 62 
 7 
 10 
0.825
 20 
1.35
 11 
0.833
 21 
1.342
 0 
LINE
 8 
0
 62 
 7 
 10 
0.833
 20 
1.342
 11 
0.833
 21 
1.308
 0 
LINE
 8 
0
 62 
 7 
 10 
0.833
 20 
1.308
 11 
0.825
 21 
1.3
 0 
LINE
 8 
0
 62 
 7 
 10 
0.825
 20 
1.3
 11 
0.808
 21 
1.3
 0 
LINE
 8 
0
 62 
 7 
 10 
0.808
 20 
1.3
 11 
0.8
 21 
1.308
 0 
LINE
 8 
0
 62 
 7 
 10 
0.8
 20 
1.308
 11 
0.833
 21 
1.342
 0 
LINE
 8 
0
 62 
 7 
 10 
0.85
 20 
1.308
 11 
0.85
 21 
1.342
 0 
LINE
 8 
0
 62 
 7 
 10 
0.85
 20 
1.342
 11 
0.858
 21 
1.35
 0 
LINE
 8 
0
 62 
 7 
 10 
0.858
 20 
1.35
 11 
0.875
 21 
1.35
 0 
LINE
 8 
0
 62 
 7 
 10 
0.875
 20 
1.35
 11 
0.883
 21 
1.342
 0 
LINE
 8 
0
 62 
 7 
 10 
0.883
 20 
1.342
 11 
0.883
 21 
1.308
 0 
LINE
 8 
0
 62 
 7 
 10 
0.883
 20 
1.308
 11 
0.875
 21 
1.3
 0 
LINE
 8 
0
 62 
 7 
 10 
0.875
 20 
1.3
 11 
0.858
 21 
1.3
 0 
LINE
 8 
0
 62 
 7 
 10 
0.858
 20 
1.3
 11 
0.85
 21 
1.308
 0 
LINE
 8 
0
 62 
 7 
 10 
0.85
 20 
1.308
 11 
0.883
 21 
1.342
 0 
LINE
 8 
0
 62 
 7 
 10 
0.95
 20 
1.3
 11 
0.95
 21 
1.35
 0 
LINE
 8 
0
 62 
 7 
 10 
0.95
 20 
1.35
 11 
0.975
 21 
1.35
 0 
LINE
 8 
0
 62 
 7 
 10 
0.975
 20 
1.35
 11 
0.983
 21 
1.342
 0 
LINE
 8 
0
 62 
 7 
 10 
0.983
 20 
1.342
 11 
0.983
 21 
1.333
 0 
LINE
 8 
0
 62 
 7 
 10 
0.983
 20 
1.333
 11 
0.975
 21 
1.325
 0 
LINE
 8 
0
 62 
 7 
 10 
0.975
 20 
1.325
 11 
0.95
 21 
1.325
 0 
LINE
 8 
0
 62 
 7 
 10 
0.958
 20 
1.325
 11 
0.983
 21 
1.3
 0 
LINE
 8 
0
 62 
 7 
 10 
1.0
 20 
1.317
 11 
1.033
 21 
1.317
 0 
LINE
 8 
0
 62 
 7 
 10 
1.033
 20 
1.317
 11 
1.033
 21 
1.325
 0 
LINE
 8 
0
 62 
 7 
 10 
1.033
 20 
1.325
 11 
1.025
 21 
1.333
 0 
LINE
 8 
0
 62 
 7 
 10 
1.025
 20 
1.333
 11 
1.008
 21 
1.333
 0 
LINE
 8 
0
 62 
 7 
 10 
1.008
 20 
1.333
 11 
1.0
 21 
1.325
 0 
LINE
 8 
0
 62 
 7 
 10 
1.0
 20 
1.325
 11 
1.0
 21 
1.308
 0 
LINE
 8 
0
 62 
 7 
 10 
1.0
 20 
1.308
 11 
1.008
 21 
1.3
 0 
LINE
 8 
0
 62 
 7 
 10 
1.008
 20 
1.3
 11 
1.025
 21 
1.3
 0 
LINE
 8 
0
 62 
 7 
 10 
1.05
 20 
1.333
 11 
1.05
 21 
1.317
 0 
LINE
 8 
0
 62 
 7 
 10 
1.05
 20 
1.317
 11 
1.067
 21 
1.3
 0 
LINE
 8 
0
 62 
 7 
 10 
1.067
 20 
1.3
 11 
1.083
 21 
1.317
 0 
LINE
 8 
0
 62 
 7 
 10 
1.083
 20 
1.317
 11 
1.083
 21 
1.333
 0 
LINE
 8 
0
 62 
 7 
 10 
1.15
 20 
1.3
 11 
1.15
 21 
1.333
 0 
LINE
 8 
0
 62 
 7 
 10 
1.15
 20 
1.333
 11 
1.167
 21 
1.35
 0 
LINE
 8 
0
 62 
 7 
 10 
1.167
 20 
1.35
 11 
1.183
 21 
1.333
 0 
LINE
 8 
0
 62 
 7 
 10 
1.183
 20 
1.333
 11 
1.183
 21 
1.3
 0 
LINE
 8 
0
 62 
 7 
 10 
1.15
 20 
1.317
 11 
1.183
 21 
1.317
 0 
LINE
 8 
0
 62 
 7 
 10 
0.283
 20 
0.5
 11 
0.308
 21 
0.5
 0 
LINE
 8 
0
 62 
 7 
 10 
0.308
 20 
0.5
 11 
0.308
 21 
0.458
 0 
LINE
 8 
0
 62 
 7 
 10 
0.308
 20 
0.458
 11 
0.3
 21 
0.45
 0 
LINE
 8 
0
 62 
 7 
 10 
0.3
 20 
0.45
 11 
0.283
 21 
0.45
 0 
LINE
 8 
0
 62 
 7 
 10 
0.283
 20 
0.45
 11 
0.275
 21 
0.458
 0 
LINE
 8 
0
 62 
 7 
 10 
0.358
 20 
0.467
 11 
0.325
 21 
0.467
 0 
LINE
 8 
0
 62 
 7 
 10 
0.325
 20 
0.467
 11 
0.325
 21 
0.475
 0 
LINE
 8 
0
 62 
 7 
 10 
0.325
 20 
0.475
 11 
0.35
 21 
0.5
 0 
LINE
 8 
0
 62 
 7 
 10 
0.35
 20 
0.5
 11 
0.35
 21 
0.45
 0 
ENDSEC
 0 
EOF
