 0 
SECTION
 2 
HEADER
 9 
$ACADVER
 1 
AC1004
 9 
$EXTMIN
 10 
0.0
 20 
0.0
 9 
$EXTMAX
 10 
3.112
 20 
0.912
 9 
$LIMMIN
 10 
0.0
 20 
0.0
 9 
$LIMMAX
 10 
3.112
 20 
0.912
 9 
$INSBASE
 10 
0.0
 20 
0.0
 9 
$VIEWCTR
 10 
1.556
 20 
0.444
 9 
$VIEWSIZE
 40 
0.912
 9 
$ORTHOMODE
 70 
 0 
 9 
$REGENMODE
 70 
 1 
 9 
$FILLMODE
 70 
 1 
 9 
$QTEXTMODE
 70 
 0 
 9 
$DRAGMODE
 70 
 2 
 9 
$LTSCALE
 40 
1.0
 9 
$OSMODE
 70 
 0 
 9 
$ATTMODE
 70 
 1 
 9 
$TEXTSIZE
 40 
0.2
 9 
$TRACEWID
 40 
0.05
 9 
$TEXTSTYLE
 7 
STANDARD
 9 
$CLAYER
 8 
0
 9 
$CELTYPE
 6 
BYLAYER
 9 
$CECOLOR
 62 
 256 
 9 
$DIMSCALE
 40 
1.0
 9 
$DIMLFAC
 40 
1.0
 9 
$LUNITS
 70 
 2 
 9 
$LUPREC
 70 
 4 
 9 
$AXISMODE
 70 
 0 
 9 
$AXISUNIT
 10 
0.0
 20 
0.0
 9 
$SKETCHINC
 40 
0.1
 9 
$MENU
 1 
acad
 9 
$ELEVATION
 40 
0.0
 9 
$THICKNESS
 40 
0.0
 9 
$VIEWDIR
 10 
0.0
 20 
0.0
 30 
1.0
 9 
$LIMCHECK
 70 
 0 
 9 
$BLIPMODE
 70 
 1 
 9 
$FASTZOOM
 70 
 1 
 9 
$SKPOLY
 70 
 0 
 9 
$ANGBASE
 50 
0.0
 9 
$ANGDIR
 70 
 0 
 9 
$PDMODE
 70 
 0 
 9 
$PDSIZE
 40 
0.0
 9 
$PLINEWID
 40 
0.0
 9 
$COORDS
 70 
 0 
 9 
$ATTDIA
 70 
 0 
 9 
$ATTREQ
 70 
 1 
 0 
ENDSEC
 0 
SECTION
 2 
TABLES
 0 
TABLE
 2 
LTYPE
 70 
 10 
 0 
LTYPE
 2 
CONTINUOUS
 70 
 64 
 3 
Solid line
 72 
 65 
 73 
 0 
 40 
0.0
 0 
ENDTAB
 0 
TABLE
 2 
LAYER
 70 
 153 
 0 
LAYER
 2 
0
 70 
 64 
 62 
 7 
 6 
CONTINUOUS
 0 
ENDTAB
 0 
ENDSEC
 0 
SECTION
 2 
BLOCKS
 0 
ENDSEC
 0 
SECTION
 2 
ENTITIES
 0 
LINE
 8 
0
 62 
 7 
 10 
0.0
 20 
0.9
 11 
0.0
 21 
0.0
 0 
LINE
 8 
0
 62 
 7 
 10 
0.0
 20 
0.0
 11 
3.1
 21 
0.0
 0 
LINE
 8 
0
 62 
 7 
 10 
3.1
 20 
0.0
 11 
3.1
 21 
0.9
 0 
LINE
 8 
0
 62 
 7 
 10 
3.1
 20 
0.9
 11 
0.0
 21 
0.9
 0 
LINE
 8 
0
 62 
 7 
 10 
0.927
 20 
0.127
 11 
1.024
 21 
0.127
 0 
LINE
 8 
0
 62 
 7 
 10 
1.024
 20 
0.177
 11 
1.024
 21 
0.128
 0 
LINE
 8 
0
 62 
 7 
 10 
1.023
 20 
0.177
 11 
0.927
 21 
0.177
 0 
LINE
 8 
0
 62 
 7 
 10 
0.925
 20 
0.177
 11 
0.925
 21 
0.127
 0 
LINE
 8 
0
 62 
 7 
 10 
0.947
 20 
0.079
 11 
0.947
 21 
0.117
 0 
LINE
 8 
0
 62 
 7 
 10 
0.947
 20 
0.117
 11 
0.966
 21 
0.117
 0 
LINE
 8 
0
 62 
 7 
 10 
0.966
 20 
0.117
 11 
0.972
 21 
0.111
 0 
LINE
 8 
0
 62 
 7 
 10 
0.972
 20 
0.111
 11 
0.972
 21 
0.104
 0 
LINE
 8 
0
 62 
 7 
 10 
0.972
 20 
0.104
 11 
0.966
 21 
0.098
 0 
LINE
 8 
0
 62 
 7 
 10 
0.966
 20 
0.098
 11 
0.947
 21 
0.098
 0 
LINE
 8 
0
 62 
 7 
 10 
0.953
 20 
0.098
 11 
0.972
 21 
0.079
 0 
LINE
 8 
0
 62 
 7 
 10 
0.991
 20 
0.111
 11 
0.998
 21 
0.117
 0 
LINE
 8 
0
 62 
 7 
 10 
0.998
 20 
0.117
 11 
0.998
 21 
0.079
 0 
LINE
 8 
0
 62 
 7 
 10 
0.991
 20 
0.079
 11 
1.004
 21 
0.079
 0 
LINE
 8 
0
 62 
 7 
 10 
0.928
 20 
0.186
 11 
1.025
 21 
0.186
 0 
LINE
 8 
0
 62 
 7 
 10 
1.106
 20 
0.601
 11 
1.203
 21 
0.601
 0 
LINE
 8 
0
 62 
 7 
 10 
1.025
 20 
0.236
 11 
1.025
 21 
0.187
 0 
LINE
 8 
0
 62 
 7 
 10 
1.203
 20 
0.651
 11 
1.203
 21 
0.602
 0 
LINE
 8 
0
 62 
 7 
 10 
0.927
 20 
0.361
 11 
1.024
 21 
0.361
 0 
LINE
 8 
0
 62 
 7 
 10 
1.024
 20 
0.411
 11 
1.024
 21 
0.362
 0 
LINE
 8 
0
 62 
 7 
 10 
1.023
 20 
0.411
 11 
0.927
 21 
0.411
 0 
LINE
 8 
0
 62 
 7 
 10 
1.202
 20 
0.651
 11 
1.106
 21 
0.651
 0 
LINE
 8 
0
 62 
 7 
 10 
0.925
 20 
0.411
 11 
0.925
 21 
0.361
 0 
LINE
 8 
0
 62 
 7 
 10 
0.877
 20 
0.405
 11 
0.871
 21 
0.411
 0 
LINE
 8 
0
 62 
 7 
 10 
0.871
 20 
0.411
 11 
0.858
 21 
0.411
 0 
LINE
 8 
0
 62 
 7 
 10 
0.858
 20 
0.411
 11 
0.852
 21 
0.405
 0 
LINE
 8 
0
 62 
 7 
 10 
0.852
 20 
0.405
 11 
0.852
 21 
0.379
 0 
LINE
 8 
0
 62 
 7 
 10 
0.852
 20 
0.379
 11 
0.858
 21 
0.373
 0 
LINE
 8 
0
 62 
 7 
 10 
0.858
 20 
0.373
 11 
0.871
 21 
0.373
 0 
LINE
 8 
0
 62 
 7 
 10 
0.871
 20 
0.373
 11 
0.877
 21 
0.379
 0 
LINE
 8 
0
 62 
 7 
 10 
0.896
 20 
0.405
 11 
0.903
 21 
0.411
 0 
LINE
 8 
0
 62 
 7 
 10 
0.903
 20 
0.411
 11 
0.903
 21 
0.373
 0 
LINE
 8 
0
 62 
 7 
 10 
0.896
 20 
0.373
 11 
0.909
 21 
0.373
 0 
LINE
 8 
0
 62 
 7 
 10 
0.928
 20 
0.418
 11 
1.025
 21 
0.418
 0 
LINE
 8 
0
 62 
 7 
 10 
1.025
 20 
0.468
 11 
1.025
 21 
0.419
 0 
LINE
 8 
0
 62 
 7 
 10 
1.024
 20 
0.468
 11 
0.928
 21 
0.468
 0 
LINE
 8 
0
 62 
 7 
 10 
1.095
 20 
0.214
 11 
1.192
 21 
0.214
 0 
LINE
 8 
0
 62 
 7 
 10 
0.926
 20 
0.468
 11 
0.926
 21 
0.418
 0 
LINE
 8 
0
 62 
 7 
 10 
1.104
 20 
0.651
 11 
1.104
 21 
0.601
 0 
LINE
 8 
0
 62 
 7 
 10 
0.878
 20 
0.462
 11 
0.872
 21 
0.468
 0 
LINE
 8 
0
 62 
 7 
 10 
0.872
 20 
0.468
 11 
0.859
 21 
0.468
 0 
LINE
 8 
0
 62 
 7 
 10 
0.859
 20 
0.468
 11 
0.853
 21 
0.462
 0 
LINE
 8 
0
 62 
 7 
 10 
0.853
 20 
0.462
 11 
0.853
 21 
0.436
 0 
LINE
 8 
0
 62 
 7 
 10 
0.853
 20 
0.436
 11 
0.859
 21 
0.43
 0 
LINE
 8 
0
 62 
 7 
 10 
0.859
 20 
0.43
 11 
0.872
 21 
0.43
 0 
LINE
 8 
0
 62 
 7 
 10 
0.872
 20 
0.43
 11 
0.878
 21 
0.436
 0 
LINE
 8 
0
 62 
 7 
 10 
0.891
 20 
0.462
 11 
0.897
 21 
0.468
 0 
LINE
 8 
0
 62 
 7 
 10 
0.897
 20 
0.468
 11 
0.91
 21 
0.468
 0 
LINE
 8 
0
 62 
 7 
 10 
0.91
 20 
0.468
 11 
0.916
 21 
0.462
 0 
LINE
 8 
0
 62 
 7 
 10 
0.916
 20 
0.462
 11 
0.916
 21 
0.455
 0 
LINE
 8 
0
 62 
 7 
 10 
0.916
 20 
0.455
 11 
0.91
 21 
0.449
 0 
LINE
 8 
0
 62 
 7 
 10 
0.91
 20 
0.449
 11 
0.897
 21 
0.449
 0 
LINE
 8 
0
 62 
 7 
 10 
0.897
 20 
0.449
 11 
0.891
 21 
0.443
 0 
LINE
 8 
0
 62 
 7 
 10 
0.891
 20 
0.443
 11 
0.891
 21 
0.43
 0 
LINE
 8 
0
 62 
 7 
 10 
0.891
 20 
0.43
 11 
0.916
 21 
0.43
 0 
LINE
 8 
0
 62 
 7 
 10 
0.928
 20 
0.302
 11 
1.025
 21 
0.302
 0 
LINE
 8 
0
 62 
 7 
 10 
1.025
 20 
0.352
 11 
1.025
 21 
0.303
 0 
LINE
 8 
0
 62 
 7 
 10 
1.024
 20 
0.352
 11 
0.928
 21 
0.352
 0 
LINE
 8 
0
 62 
 7 
 10 
0.926
 20 
0.352
 11 
0.926
 21 
0.302
 0 
LINE
 8 
0
 62 
 7 
 10 
0.853
 20 
0.314
 11 
0.853
 21 
0.352
 0 
LINE
 8 
0
 62 
 7 
 10 
0.853
 20 
0.352
 11 
0.872
 21 
0.352
 0 
LINE
 8 
0
 62 
 7 
 10 
0.872
 20 
0.352
 11 
0.878
 21 
0.346
 0 
LINE
 8 
0
 62 
 7 
 10 
0.878
 20 
0.346
 11 
0.878
 21 
0.339
 0 
LINE
 8 
0
 62 
 7 
 10 
0.878
 20 
0.339
 11 
0.872
 21 
0.333
 0 
LINE
 8 
0
 62 
 7 
 10 
0.872
 20 
0.333
 11 
0.853
 21 
0.333
 0 
LINE
 8 
0
 62 
 7 
 10 
0.859
 20 
0.333
 11 
0.878
 21 
0.314
 0 
LINE
 8 
0
 62 
 7 
 10 
0.891
 20 
0.346
 11 
0.897
 21 
0.352
 0 
LINE
 8 
0
 62 
 7 
 10 
0.897
 20 
0.352
 11 
0.91
 21 
0.352
 0 
LINE
 8 
0
 62 
 7 
 10 
0.91
 20 
0.352
 11 
0.916
 21 
0.346
 0 
LINE
 8 
0
 62 
 7 
 10 
0.916
 20 
0.346
 11 
0.916
 21 
0.339
 0 
LINE
 8 
0
 62 
 7 
 10 
0.916
 20 
0.339
 11 
0.91
 21 
0.333
 0 
LINE
 8 
0
 62 
 7 
 10 
0.91
 20 
0.333
 11 
0.904
 21 
0.333
 0 
LINE
 8 
0
 62 
 7 
 10 
0.91
 20 
0.333
 11 
0.916
 21 
0.327
 0 
LINE
 8 
0
 62 
 7 
 10 
0.916
 20 
0.327
 11 
0.916
 21 
0.32
 0 
LINE
 8 
0
 62 
 7 
 10 
0.916
 20 
0.32
 11 
0.91
 21 
0.314
 0 
LINE
 8 
0
 62 
 7 
 10 
0.91
 20 
0.314
 11 
0.897
 21 
0.314
 0 
LINE
 8 
0
 62 
 7 
 10 
0.897
 20 
0.314
 11 
0.891
 21 
0.32
 0 
LINE
 8 
0
 62 
 7 
 10 
0.929
 20 
0.476
 11 
1.026
 21 
0.476
 0 
LINE
 8 
0
 62 
 7 
 10 
1.026
 20 
0.526
 11 
1.026
 21 
0.477
 0 
LINE
 8 
0
 62 
 7 
 10 
1.025
 20 
0.526
 11 
0.929
 21 
0.526
 0 
LINE
 8 
0
 62 
 7 
 10 
0.928
 20 
0.243
 11 
1.025
 21 
0.243
 0 
LINE
 8 
0
 62 
 7 
 10 
1.025
 20 
0.293
 11 
1.025
 21 
0.244
 0 
LINE
 8 
0
 62 
 7 
 10 
1.024
 20 
0.293
 11 
0.928
 21 
0.293
 0 
LINE
 8 
0
 62 
 7 
 10 
0.926
 20 
0.293
 11 
0.926
 21 
0.243
 0 
LINE
 8 
0
 62 
 7 
 10 
0.853
 20 
0.255
 11 
0.853
 21 
0.293
 0 
LINE
 8 
0
 62 
 7 
 10 
0.853
 20 
0.293
 11 
0.872
 21 
0.293
 0 
LINE
 8 
0
 62 
 7 
 10 
0.872
 20 
0.293
 11 
0.878
 21 
0.287
 0 
LINE
 8 
0
 62 
 7 
 10 
0.878
 20 
0.287
 11 
0.878
 21 
0.28
 0 
LINE
 8 
0
 62 
 7 
 10 
0.878
 20 
0.28
 11 
0.872
 21 
0.274
 0 
LINE
 8 
0
 62 
 7 
 10 
0.872
 20 
0.274
 11 
0.853
 21 
0.274
 0 
LINE
 8 
0
 62 
 7 
 10 
0.859
 20 
0.274
 11 
0.878
 21 
0.255
 0 
LINE
 8 
0
 62 
 7 
 10 
0.916
 20 
0.293
 11 
0.891
 21 
0.293
 0 
LINE
 8 
0
 62 
 7 
 10 
0.891
 20 
0.293
 11 
0.891
 21 
0.28
 0 
LINE
 8 
0
 62 
 7 
 10 
0.891
 20 
0.28
 11 
0.91
 21 
0.28
 0 
LINE
 8 
0
 62 
 7 
 10 
0.91
 20 
0.28
 11 
0.916
 21 
0.274
 0 
LINE
 8 
0
 62 
 7 
 10 
0.916
 20 
0.274
 11 
0.916
 21 
0.261
 0 
LINE
 8 
0
 62 
 7 
 10 
0.916
 20 
0.261
 11 
0.91
 21 
0.255
 0 
LINE
 8 
0
 62 
 7 
 10 
0.91
 20 
0.255
 11 
0.897
 21 
0.255
 0 
LINE
 8 
0
 62 
 7 
 10 
0.897
 20 
0.255
 11 
0.891
 21 
0.261
 0 
LINE
 8 
0
 62 
 7 
 10 
1.034
 20 
0.608
 11 
1.034
 21 
0.646
 0 
LINE
 8 
0
 62 
 7 
 10 
1.034
 20 
0.646
 11 
1.053
 21 
0.646
 0 
LINE
 8 
0
 62 
 7 
 10 
1.053
 20 
0.646
 11 
1.059
 21 
0.64
 0 
LINE
 8 
0
 62 
 7 
 10 
1.059
 20 
0.64
 11 
1.059
 21 
0.633
 0 
LINE
 8 
0
 62 
 7 
 10 
1.059
 20 
0.633
 11 
1.053
 21 
0.627
 0 
LINE
 8 
0
 62 
 7 
 10 
1.053
 20 
0.627
 11 
1.034
 21 
0.627
 0 
LINE
 8 
0
 62 
 7 
 10 
1.04
 20 
0.627
 11 
1.059
 21 
0.608
 0 
LINE
 8 
0
 62 
 7 
 10 
1.078
 20 
0.627
 11 
1.072
 21 
0.633
 0 
LINE
 8 
0
 62 
 7 
 10 
1.072
 20 
0.633
 11 
1.072
 21 
0.64
 0 
LINE
 8 
0
 62 
 7 
 10 
1.072
 20 
0.64
 11 
1.078
 21 
0.646
 0 
LINE
 8 
0
 62 
 7 
 10 
1.078
 20 
0.646
 11 
1.091
 21 
0.646
 0 
LINE
 8 
0
 62 
 7 
 10 
1.091
 20 
0.646
 11 
1.097
 21 
0.64
 0 
LINE
 8 
0
 62 
 7 
 10 
1.097
 20 
0.64
 11 
1.097
 21 
0.633
 0 
LINE
 8 
0
 62 
 7 
 10 
1.097
 20 
0.633
 11 
1.091
 21 
0.627
 0 
LINE
 8 
0
 62 
 7 
 10 
1.091
 20 
0.627
 11 
1.078
 21 
0.627
 0 
LINE
 8 
0
 62 
 7 
 10 
1.078
 20 
0.627
 11 
1.072
 21 
0.621
 0 
LINE
 8 
0
 62 
 7 
 10 
1.072
 20 
0.621
 11 
1.072
 21 
0.614
 0 
LINE
 8 
0
 62 
 7 
 10 
1.072
 20 
0.614
 11 
1.078
 21 
0.608
 0 
LINE
 8 
0
 62 
 7 
 10 
1.078
 20 
0.608
 11 
1.091
 21 
0.608
 0 
LINE
 8 
0
 62 
 7 
 10 
1.091
 20 
0.608
 11 
1.097
 21 
0.614
 0 
LINE
 8 
0
 62 
 7 
 10 
1.097
 20 
0.614
 11 
1.097
 21 
0.621
 0 
LINE
 8 
0
 62 
 7 
 10 
1.097
 20 
0.621
 11 
1.091
 21 
0.627
 0 
LINE
 8 
0
 62 
 7 
 10 
1.024
 20 
0.236
 11 
0.928
 21 
0.236
 0 
LINE
 8 
0
 62 
 7 
 10 
0.926
 20 
0.236
 11 
0.926
 21 
0.186
 0 
LINE
 8 
0
 62 
 7 
 10 
1.192
 20 
0.264
 11 
1.192
 21 
0.215
 0 
LINE
 8 
0
 62 
 7 
 10 
0.927
 20 
0.526
 11 
0.927
 21 
0.476
 0 
LINE
 8 
0
 62 
 7 
 10 
0.869
 20 
0.164
 11 
0.863
 21 
0.158
 0 
LINE
 8 
0
 62 
 7 
 10 
0.863
 20 
0.158
 11 
0.863
 21 
0.145
 0 
LINE
 8 
0
 62 
 7 
 10 
0.863
 20 
0.145
 11 
0.869
 21 
0.139
 0 
LINE
 8 
0
 62 
 7 
 10 
0.869
 20 
0.139
 11 
0.895
 21 
0.139
 0 
LINE
 8 
0
 62 
 7 
 10 
0.895
 20 
0.139
 11 
0.901
 21 
0.145
 0 
LINE
 8 
0
 62 
 7 
 10 
0.901
 20 
0.145
 11 
0.901
 21 
0.158
 0 
LINE
 8 
0
 62 
 7 
 10 
0.901
 20 
0.158
 11 
0.895
 21 
0.164
 0 
LINE
 8 
0
 62 
 7 
 10 
0.869
 20 
0.183
 11 
0.863
 21 
0.19
 0 
LINE
 8 
0
 62 
 7 
 10 
0.863
 20 
0.19
 11 
0.901
 21 
0.19
 0 
LINE
 8 
0
 62 
 7 
 10 
0.901
 20 
0.183
 11 
0.901
 21 
0.196
 0 
LINE
 8 
0
 62 
 7 
 10 
0.869
 20 
0.215
 11 
0.863
 21 
0.221
 0 
LINE
 8 
0
 62 
 7 
 10 
0.863
 20 
0.221
 11 
0.863
 21 
0.234
 0 
LINE
 8 
0
 62 
 7 
 10 
0.863
 20 
0.234
 11 
0.869
 21 
0.24
 0 
LINE
 8 
0
 62 
 7 
 10 
0.869
 20 
0.24
 11 
0.876
 21 
0.24
 0 
LINE
 8 
0
 62 
 7 
 10 
0.876
 20 
0.24
 11 
0.882
 21 
0.234
 0 
LINE
 8 
0
 62 
 7 
 10 
0.882
 20 
0.234
 11 
0.882
 21 
0.228
 0 
LINE
 8 
0
 62 
 7 
 10 
0.882
 20 
0.234
 11 
0.888
 21 
0.24
 0 
LINE
 8 
0
 62 
 7 
 10 
0.888
 20 
0.24
 11 
0.895
 21 
0.24
 0 
LINE
 8 
0
 62 
 7 
 10 
0.895
 20 
0.24
 11 
0.901
 21 
0.234
 0 
LINE
 8 
0
 62 
 7 
 10 
0.901
 20 
0.234
 11 
0.901
 21 
0.221
 0 
LINE
 8 
0
 62 
 7 
 10 
0.901
 20 
0.221
 11 
0.895
 21 
0.215
 0 
LINE
 8 
0
 62 
 7 
 10 
0.854
 20 
0.488
 11 
0.854
 21 
0.526
 0 
LINE
 8 
0
 62 
 7 
 10 
0.854
 20 
0.526
 11 
0.873
 21 
0.526
 0 
LINE
 8 
0
 62 
 7 
 10 
0.873
 20 
0.526
 11 
0.879
 21 
0.52
 0 
LINE
 8 
0
 62 
 7 
 10 
0.879
 20 
0.52
 11 
0.879
 21 
0.513
 0 
LINE
 8 
0
 62 
 7 
 10 
0.879
 20 
0.513
 11 
0.873
 21 
0.507
 0 
LINE
 8 
0
 62 
 7 
 10 
0.873
 20 
0.507
 11 
0.854
 21 
0.507
 0 
LINE
 8 
0
 62 
 7 
 10 
0.86
 20 
0.507
 11 
0.879
 21 
0.488
 0 
LINE
 8 
0
 62 
 7 
 10 
0.917
 20 
0.501
 11 
0.892
 21 
0.501
 0 
LINE
 8 
0
 62 
 7 
 10 
0.892
 20 
0.501
 11 
0.892
 21 
0.507
 0 
LINE
 8 
0
 62 
 7 
 10 
0.892
 20 
0.507
 11 
0.911
 21 
0.526
 0 
LINE
 8 
0
 62 
 7 
 10 
0.911
 20 
0.526
 11 
0.911
 21 
0.488
 0 
LINE
 8 
0
 62 
 7 
 10 
0.929
 20 
0.537
 11 
1.026
 21 
0.537
 0 
LINE
 8 
0
 62 
 7 
 10 
1.026
 20 
0.587
 11 
1.026
 21 
0.538
 0 
LINE
 8 
0
 62 
 7 
 10 
1.191
 20 
0.264
 11 
1.095
 21 
0.264
 0 
LINE
 8 
0
 62 
 7 
 10 
1.093
 20 
0.264
 11 
1.093
 21 
0.214
 0 
LINE
 8 
0
 62 
 7 
 10 
1.202
 20 
0.22
 11 
1.202
 21 
0.258
 0 
LINE
 8 
0
 62 
 7 
 10 
1.202
 20 
0.258
 11 
1.221
 21 
0.258
 0 
LINE
 8 
0
 62 
 7 
 10 
1.221
 20 
0.258
 11 
1.227
 21 
0.252
 0 
LINE
 8 
0
 62 
 7 
 10 
1.227
 20 
0.252
 11 
1.227
 21 
0.245
 0 
LINE
 8 
0
 62 
 7 
 10 
1.227
 20 
0.245
 11 
1.221
 21 
0.239
 0 
LINE
 8 
0
 62 
 7 
 10 
1.221
 20 
0.239
 11 
1.202
 21 
0.239
 0 
LINE
 8 
0
 62 
 7 
 10 
1.208
 20 
0.239
 11 
1.227
 21 
0.22
 0 
LINE
 8 
0
 62 
 7 
 10 
1.24
 20 
0.252
 11 
1.24
 21 
0.258
 0 
LINE
 8 
0
 62 
 7 
 10 
1.24
 20 
0.258
 11 
1.265
 21 
0.258
 0 
LINE
 8 
0
 62 
 7 
 10 
1.265
 20 
0.258
 11 
1.265
 21 
0.252
 0 
LINE
 8 
0
 62 
 7 
 10 
1.265
 20 
0.252
 11 
1.246
 21 
0.233
 0 
LINE
 8 
0
 62 
 7 
 10 
1.246
 20 
0.233
 11 
1.246
 21 
0.22
 0 
LINE
 8 
0
 62 
 7 
 10 
1.025
 20 
0.587
 11 
0.929
 21 
0.587
 0 
LINE
 8 
0
 62 
 7 
 10 
0.927
 20 
0.587
 11 
0.927
 21 
0.537
 0 
LINE
 8 
0
 62 
 7 
 10 
0.854
 20 
0.549
 11 
0.854
 21 
0.587
 0 
LINE
 8 
0
 62 
 7 
 10 
0.854
 20 
0.587
 11 
0.873
 21 
0.587
 0 
LINE
 8 
0
 62 
 7 
 10 
0.873
 20 
0.587
 11 
0.879
 21 
0.581
 0 
LINE
 8 
0
 62 
 7 
 10 
0.879
 20 
0.581
 11 
0.879
 21 
0.574
 0 
LINE
 8 
0
 62 
 7 
 10 
0.879
 20 
0.574
 11 
0.873
 21 
0.568
 0 
LINE
 8 
0
 62 
 7 
 10 
0.873
 20 
0.568
 11 
0.854
 21 
0.568
 0 
LINE
 8 
0
 62 
 7 
 10 
0.86
 20 
0.568
 11 
0.879
 21 
0.549
 0 
LINE
 8 
0
 62 
 7 
 10 
0.911
 20 
0.587
 11 
0.905
 21 
0.587
 0 
LINE
 8 
0
 62 
 7 
 10 
0.905
 20 
0.587
 11 
0.892
 21 
0.574
 0 
LINE
 8 
0
 62 
 7 
 10 
0.892
 20 
0.574
 11 
0.892
 21 
0.555
 0 
LINE
 8 
0
 62 
 7 
 10 
0.892
 20 
0.555
 11 
0.898
 21 
0.549
 0 
LINE
 8 
0
 62 
 7 
 10 
0.898
 20 
0.549
 11 
0.911
 21 
0.549
 0 
LINE
 8 
0
 62 
 7 
 10 
0.911
 20 
0.549
 11 
0.917
 21 
0.555
 0 
LINE
 8 
0
 62 
 7 
 10 
0.917
 20 
0.555
 11 
0.917
 21 
0.562
 0 
LINE
 8 
0
 62 
 7 
 10 
0.917
 20 
0.562
 11 
0.911
 21 
0.568
 0 
LINE
 8 
0
 62 
 7 
 10 
0.911
 20 
0.568
 11 
0.898
 21 
0.568
 0 
LINE
 8 
0
 62 
 7 
 10 
0.898
 20 
0.568
 11 
0.892
 21 
0.562
 0 
LINE
 8 
0
 62 
 7 
 10 
1.095
 20 
0.155
 11 
1.192
 21 
0.155
 0 
LINE
 8 
0
 62 
 7 
 10 
1.192
 20 
0.205
 11 
1.192
 21 
0.156
 0 
LINE
 8 
0
 62 
 7 
 10 
1.191
 20 
0.205
 11 
1.095
 21 
0.205
 0 
LINE
 8 
0
 62 
 7 
 10 
1.093
 20 
0.205
 11 
1.093
 21 
0.155
 0 
LINE
 8 
0
 62 
 7 
 10 
1.257
 20 
0.192
 11 
1.251
 21 
0.198
 0 
LINE
 8 
0
 62 
 7 
 10 
1.251
 20 
0.198
 11 
1.238
 21 
0.198
 0 
LINE
 8 
0
 62 
 7 
 10 
1.238
 20 
0.198
 11 
1.232
 21 
0.192
 0 
LINE
 8 
0
 62 
 7 
 10 
1.232
 20 
0.192
 11 
1.232
 21 
0.166
 0 
LINE
 8 
0
 62 
 7 
 10 
1.232
 20 
0.166
 11 
1.238
 21 
0.16
 0 
LINE
 8 
0
 62 
 7 
 10 
1.238
 20 
0.16
 11 
1.251
 21 
0.16
 0 
LINE
 8 
0
 62 
 7 
 10 
1.251
 20 
0.16
 11 
1.257
 21 
0.166
 0 
LINE
 8 
0
 62 
 7 
 10 
1.295
 20 
0.173
 11 
1.27
 21 
0.173
 0 
LINE
 8 
0
 62 
 7 
 10 
1.27
 20 
0.173
 11 
1.27
 21 
0.179
 0 
LINE
 8 
0
 62 
 7 
 10 
1.27
 20 
0.179
 11 
1.289
 21 
0.198
 0 
LINE
 8 
0
 62 
 7 
 10 
1.289
 20 
0.198
 11 
1.289
 21 
0.16
 0 
LINE
 8 
0
 62 
 7 
 10 
1.024
 20 
0.647
 11 
0.927
 21 
0.647
 0 
LINE
 8 
0
 62 
 7 
 10 
0.927
 20 
0.597
 11 
0.927
 21 
0.646
 0 
LINE
 8 
0
 62 
 7 
 10 
0.928
 20 
0.597
 11 
1.024
 21 
0.597
 0 
LINE
 8 
0
 62 
 7 
 10 
1.026
 20 
0.597
 11 
1.026
 21 
0.647
 0 
LINE
 8 
0
 62 
 7 
 10 
0.854
 20 
0.608
 11 
0.854
 21 
0.646
 0 
LINE
 8 
0
 62 
 7 
 10 
0.854
 20 
0.646
 11 
0.873
 21 
0.646
 0 
LINE
 8 
0
 62 
 7 
 10 
0.873
 20 
0.646
 11 
0.879
 21 
0.64
 0 
LINE
 8 
0
 62 
 7 
 10 
0.879
 20 
0.64
 11 
0.879
 21 
0.633
 0 
LINE
 8 
0
 62 
 7 
 10 
0.879
 20 
0.633
 11 
0.873
 21 
0.627
 0 
LINE
 8 
0
 62 
 7 
 10 
0.873
 20 
0.627
 11 
0.854
 21 
0.627
 0 
LINE
 8 
0
 62 
 7 
 10 
0.86
 20 
0.627
 11 
0.879
 21 
0.608
 0 
LINE
 8 
0
 62 
 7 
 10 
0.892
 20 
0.64
 11 
0.898
 21 
0.646
 0 
LINE
 8 
0
 62 
 7 
 10 
0.898
 20 
0.646
 11 
0.911
 21 
0.646
 0 
LINE
 8 
0
 62 
 7 
 10 
0.911
 20 
0.646
 11 
0.917
 21 
0.64
 0 
LINE
 8 
0
 62 
 7 
 10 
0.917
 20 
0.64
 11 
0.917
 21 
0.633
 0 
LINE
 8 
0
 62 
 7 
 10 
0.917
 20 
0.633
 11 
0.911
 21 
0.627
 0 
LINE
 8 
0
 62 
 7 
 10 
0.911
 20 
0.627
 11 
0.898
 21 
0.627
 0 
LINE
 8 
0
 62 
 7 
 10 
0.898
 20 
0.627
 11 
0.892
 21 
0.621
 0 
LINE
 8 
0
 62 
 7 
 10 
0.892
 20 
0.621
 11 
0.892
 21 
0.608
 0 
LINE
 8 
0
 62 
 7 
 10 
0.892
 20 
0.608
 11 
0.917
 21 
0.608
 0 
CIRCLE
 8 
0
 62 
 7 
 10 
3.0
 20 
0.8
 40 
0.062
 0 
LINE
 8 
0
 62 
 7 
 10 
1.094
 20 
0.094
 11 
1.191
 21 
0.094
 0 
LINE
 8 
0
 62 
 7 
 10 
1.191
 20 
0.144
 11 
1.191
 21 
0.095
 0 
LINE
 8 
0
 62 
 7 
 10 
1.19
 20 
0.144
 11 
1.094
 21 
0.144
 0 
LINE
 8 
0
 62 
 7 
 10 
1.092
 20 
0.144
 11 
1.092
 21 
0.094
 0 
LINE
 8 
0
 62 
 7 
 10 
1.256
 20 
0.132
 11 
1.25
 21 
0.138
 0 
LINE
 8 
0
 62 
 7 
 10 
1.25
 20 
0.138
 11 
1.237
 21 
0.138
 0 
LINE
 8 
0
 62 
 7 
 10 
1.237
 20 
0.138
 11 
1.231
 21 
0.132
 0 
LINE
 8 
0
 62 
 7 
 10 
1.231
 20 
0.132
 11 
1.231
 21 
0.106
 0 
LINE
 8 
0
 62 
 7 
 10 
1.231
 20 
0.106
 11 
1.237
 21 
0.1
 0 
LINE
 8 
0
 62 
 7 
 10 
1.237
 20 
0.1
 11 
1.25
 21 
0.1
 0 
LINE
 8 
0
 62 
 7 
 10 
1.25
 20 
0.1
 11 
1.256
 21 
0.106
 0 
LINE
 8 
0
 62 
 7 
 10 
1.294
 20 
0.138
 11 
1.269
 21 
0.138
 0 
LINE
 8 
0
 62 
 7 
 10 
1.269
 20 
0.138
 11 
1.269
 21 
0.125
 0 
LINE
 8 
0
 62 
 7 
 10 
1.269
 20 
0.125
 11 
1.288
 21 
0.125
 0 
LINE
 8 
0
 62 
 7 
 10 
1.288
 20 
0.125
 11 
1.294
 21 
0.119
 0 
LINE
 8 
0
 62 
 7 
 10 
1.294
 20 
0.119
 11 
1.294
 21 
0.106
 0 
LINE
 8 
0
 62 
 7 
 10 
1.294
 20 
0.106
 11 
1.288
 21 
0.1
 0 
LINE
 8 
0
 62 
 7 
 10 
1.288
 20 
0.1
 11 
1.275
 21 
0.1
 0 
LINE
 8 
0
 62 
 7 
 10 
1.275
 20 
0.1
 11 
1.269
 21 
0.106
 0 
LINE
 8 
0
 62 
 7 
 10 
1.344
 20 
0.41
 11 
1.344
 21 
0.46
 0 
LINE
 8 
0
 62 
 7 
 10 
1.344
 20 
0.41
 11 
1.244
 21 
0.41
 0 
LINE
 8 
0
 62 
 7 
 10 
1.244
 20 
0.41
 11 
1.244
 21 
0.46
 0 
LINE
 8 
0
 62 
 7 
 10 
1.344
 20 
0.46
 11 
1.244
 21 
0.46
 0 
CIRCLE
 8 
0
 62 
 7 
 10 
1.332
 20 
0.449
 40 
0.005
 0 
LINE
 8 
0
 62 
 7 
 10 
1.261
 20 
0.363
 11 
1.261
 21 
0.331
 0 
LINE
 8 
0
 62 
 7 
 10 
1.261
 20 
0.331
 11 
1.267
 21 
0.325
 0 
LINE
 8 
0
 62 
 7 
 10 
1.267
 20 
0.325
 11 
1.28
 21 
0.325
 0 
LINE
 8 
0
 62 
 7 
 10 
1.28
 20 
0.325
 11 
1.286
 21 
0.331
 0 
LINE
 8 
0
 62 
 7 
 10 
1.286
 20 
0.331
 11 
1.286
 21 
0.363
 0 
LINE
 8 
0
 62 
 7 
 10 
1.299
 20 
0.357
 11 
1.305
 21 
0.363
 0 
LINE
 8 
0
 62 
 7 
 10 
1.305
 20 
0.363
 11 
1.318
 21 
0.363
 0 
LINE
 8 
0
 62 
 7 
 10 
1.318
 20 
0.363
 11 
1.324
 21 
0.357
 0 
LINE
 8 
0
 62 
 7 
 10 
1.324
 20 
0.357
 11 
1.324
 21 
0.35
 0 
LINE
 8 
0
 62 
 7 
 10 
1.324
 20 
0.35
 11 
1.318
 21 
0.344
 0 
LINE
 8 
0
 62 
 7 
 10 
1.318
 20 
0.344
 11 
1.305
 21 
0.344
 0 
LINE
 8 
0
 62 
 7 
 10 
1.305
 20 
0.344
 11 
1.299
 21 
0.338
 0 
LINE
 8 
0
 62 
 7 
 10 
1.299
 20 
0.338
 11 
1.299
 21 
0.325
 0 
LINE
 8 
0
 62 
 7 
 10 
1.299
 20 
0.325
 11 
1.324
 21 
0.325
 0 
LINE
 8 
0
 62 
 7 
 10 
1.503
 20 
0.408
 11 
1.503
 21 
0.458
 0 
LINE
 8 
0
 62 
 7 
 10 
1.503
 20 
0.408
 11 
1.403
 21 
0.408
 0 
LINE
 8 
0
 62 
 7 
 10 
1.105
 20 
0.718
 11 
1.202
 21 
0.718
 0 
LINE
 8 
0
 62 
 7 
 10 
1.403
 20 
0.408
 11 
1.403
 21 
0.458
 0 
LINE
 8 
0
 62 
 7 
 10 
1.503
 20 
0.458
 11 
1.403
 21 
0.458
 0 
CIRCLE
 8 
0
 62 
 7 
 10 
1.491
 20 
0.447
 40 
0.005
 0 
LINE
 8 
0
 62 
 7 
 10 
1.511
 20 
0.348
 11 
1.511
 21 
0.316
 0 
LINE
 8 
0
 62 
 7 
 10 
1.511
 20 
0.316
 11 
1.517
 21 
0.31
 0 
LINE
 8 
0
 62 
 7 
 10 
1.517
 20 
0.31
 11 
1.53
 21 
0.31
 0 
LINE
 8 
0
 62 
 7 
 10 
1.53
 20 
0.31
 11 
1.536
 21 
0.316
 0 
LINE
 8 
0
 62 
 7 
 10 
1.536
 20 
0.316
 11 
1.536
 21 
0.348
 0 
LINE
 8 
0
 62 
 7 
 10 
1.549
 20 
0.342
 11 
1.555
 21 
0.348
 0 
LINE
 8 
0
 62 
 7 
 10 
1.555
 20 
0.348
 11 
1.568
 21 
0.348
 0 
LINE
 8 
0
 62 
 7 
 10 
1.568
 20 
0.348
 11 
1.574
 21 
0.342
 0 
LINE
 8 
0
 62 
 7 
 10 
1.574
 20 
0.342
 11 
1.574
 21 
0.335
 0 
LINE
 8 
0
 62 
 7 
 10 
1.574
 20 
0.335
 11 
1.568
 21 
0.329
 0 
LINE
 8 
0
 62 
 7 
 10 
1.568
 20 
0.329
 11 
1.562
 21 
0.329
 0 
LINE
 8 
0
 62 
 7 
 10 
1.568
 20 
0.329
 11 
1.574
 21 
0.323
 0 
LINE
 8 
0
 62 
 7 
 10 
1.574
 20 
0.323
 11 
1.574
 21 
0.316
 0 
LINE
 8 
0
 62 
 7 
 10 
1.574
 20 
0.316
 11 
1.568
 21 
0.31
 0 
LINE
 8 
0
 62 
 7 
 10 
1.568
 20 
0.31
 11 
1.555
 21 
0.31
 0 
LINE
 8 
0
 62 
 7 
 10 
1.555
 20 
0.31
 11 
1.549
 21 
0.316
 0 
LINE
 8 
0
 62 
 7 
 10 
1.256
 20 
0.601
 11 
1.353
 21 
0.601
 0 
LINE
 8 
0
 62 
 7 
 10 
1.353
 20 
0.651
 11 
1.353
 21 
0.602
 0 
LINE
 8 
0
 62 
 7 
 10 
1.352
 20 
0.651
 11 
1.256
 21 
0.651
 0 
LINE
 8 
0
 62 
 7 
 10 
1.254
 20 
0.651
 11 
1.254
 21 
0.601
 0 
LINE
 8 
0
 62 
 7 
 10 
1.368
 20 
0.606
 11 
1.368
 21 
0.644
 0 
LINE
 8 
0
 62 
 7 
 10 
1.368
 20 
0.644
 11 
1.387
 21 
0.644
 0 
LINE
 8 
0
 62 
 7 
 10 
1.387
 20 
0.644
 11 
1.393
 21 
0.638
 0 
LINE
 8 
0
 62 
 7 
 10 
1.393
 20 
0.638
 11 
1.393
 21 
0.631
 0 
LINE
 8 
0
 62 
 7 
 10 
1.393
 20 
0.631
 11 
1.387
 21 
0.625
 0 
LINE
 8 
0
 62 
 7 
 10 
1.387
 20 
0.625
 11 
1.368
 21 
0.625
 0 
LINE
 8 
0
 62 
 7 
 10 
1.374
 20 
0.625
 11 
1.393
 21 
0.606
 0 
LINE
 8 
0
 62 
 7 
 10 
1.431
 20 
0.631
 11 
1.425
 21 
0.625
 0 
LINE
 8 
0
 62 
 7 
 10 
1.425
 20 
0.625
 11 
1.412
 21 
0.625
 0 
LINE
 8 
0
 62 
 7 
 10 
1.412
 20 
0.625
 11 
1.406
 21 
0.631
 0 
LINE
 8 
0
 62 
 7 
 10 
1.406
 20 
0.631
 11 
1.406
 21 
0.638
 0 
LINE
 8 
0
 62 
 7 
 10 
1.406
 20 
0.638
 11 
1.412
 21 
0.644
 0 
LINE
 8 
0
 62 
 7 
 10 
1.412
 20 
0.644
 11 
1.425
 21 
0.644
 0 
LINE
 8 
0
 62 
 7 
 10 
1.425
 20 
0.644
 11 
1.431
 21 
0.638
 0 
LINE
 8 
0
 62 
 7 
 10 
1.431
 20 
0.638
 11 
1.431
 21 
0.619
 0 
LINE
 8 
0
 62 
 7 
 10 
1.431
 20 
0.619
 11 
1.419
 21 
0.606
 0 
LINE
 8 
0
 62 
 7 
 10 
1.419
 20 
0.606
 11 
1.412
 21 
0.606
 0 
LINE
 8 
0
 62 
 7 
 10 
1.256
 20 
0.538
 11 
1.353
 21 
0.538
 0 
LINE
 8 
0
 62 
 7 
 10 
1.353
 20 
0.588
 11 
1.353
 21 
0.539
 0 
LINE
 8 
0
 62 
 7 
 10 
1.352
 20 
0.588
 11 
1.256
 21 
0.588
 0 
LINE
 8 
0
 62 
 7 
 10 
1.254
 20 
0.588
 11 
1.254
 21 
0.538
 0 
LINE
 8 
0
 62 
 7 
 10 
1.391
 20 
0.577
 11 
1.385
 21 
0.583
 0 
LINE
 8 
0
 62 
 7 
 10 
1.385
 20 
0.583
 11 
1.372
 21 
0.583
 0 
LINE
 8 
0
 62 
 7 
 10 
1.372
 20 
0.583
 11 
1.366
 21 
0.577
 0 
LINE
 8 
0
 62 
 7 
 10 
1.366
 20 
0.577
 11 
1.366
 21 
0.551
 0 
LINE
 8 
0
 62 
 7 
 10 
1.366
 20 
0.551
 11 
1.372
 21 
0.545
 0 
LINE
 8 
0
 62 
 7 
 10 
1.372
 20 
0.545
 11 
1.385
 21 
0.545
 0 
LINE
 8 
0
 62 
 7 
 10 
1.385
 20 
0.545
 11 
1.391
 21 
0.551
 0 
LINE
 8 
0
 62 
 7 
 10 
1.41
 20 
0.564
 11 
1.404
 21 
0.57
 0 
LINE
 8 
0
 62 
 7 
 10 
1.404
 20 
0.57
 11 
1.404
 21 
0.577
 0 
LINE
 8 
0
 62 
 7 
 10 
1.404
 20 
0.577
 11 
1.41
 21 
0.583
 0 
LINE
 8 
0
 62 
 7 
 10 
1.41
 20 
0.583
 11 
1.423
 21 
0.583
 0 
LINE
 8 
0
 62 
 7 
 10 
1.423
 20 
0.583
 11 
1.429
 21 
0.577
 0 
LINE
 8 
0
 62 
 7 
 10 
1.429
 20 
0.577
 11 
1.429
 21 
0.57
 0 
LINE
 8 
0
 62 
 7 
 10 
1.429
 20 
0.57
 11 
1.423
 21 
0.564
 0 
LINE
 8 
0
 62 
 7 
 10 
1.423
 20 
0.564
 11 
1.41
 21 
0.564
 0 
LINE
 8 
0
 62 
 7 
 10 
1.41
 20 
0.564
 11 
1.404
 21 
0.558
 0 
LINE
 8 
0
 62 
 7 
 10 
1.404
 20 
0.558
 11 
1.404
 21 
0.551
 0 
LINE
 8 
0
 62 
 7 
 10 
1.404
 20 
0.551
 11 
1.41
 21 
0.545
 0 
LINE
 8 
0
 62 
 7 
 10 
1.41
 20 
0.545
 11 
1.423
 21 
0.545
 0 
LINE
 8 
0
 62 
 7 
 10 
1.423
 20 
0.545
 11 
1.429
 21 
0.551
 0 
LINE
 8 
0
 62 
 7 
 10 
1.429
 20 
0.551
 11 
1.429
 21 
0.558
 0 
LINE
 8 
0
 62 
 7 
 10 
1.429
 20 
0.558
 11 
1.423
 21 
0.564
 0 
LINE
 8 
0
 62 
 7 
 10 
1.396
 20 
0.305
 11 
1.493
 21 
0.305
 0 
LINE
 8 
0
 62 
 7 
 10 
1.493
 20 
0.355
 11 
1.493
 21 
0.306
 0 
LINE
 8 
0
 62 
 7 
 10 
1.492
 20 
0.355
 11 
1.396
 21 
0.355
 0 
LINE
 8 
0
 62 
 7 
 10 
1.394
 20 
0.355
 11 
1.394
 21 
0.305
 0 
LINE
 8 
0
 62 
 7 
 10 
1.345
 20 
0.259
 11 
1.345
 21 
0.297
 0 
LINE
 8 
0
 62 
 7 
 10 
1.345
 20 
0.297
 11 
1.364
 21 
0.297
 0 
LINE
 8 
0
 62 
 7 
 10 
1.364
 20 
0.297
 11 
1.37
 21 
0.291
 0 
LINE
 8 
0
 62 
 7 
 10 
1.37
 20 
0.291
 11 
1.37
 21 
0.284
 0 
LINE
 8 
0
 62 
 7 
 10 
1.37
 20 
0.284
 11 
1.364
 21 
0.278
 0 
LINE
 8 
0
 62 
 7 
 10 
1.364
 20 
0.278
 11 
1.345
 21 
0.278
 0 
LINE
 8 
0
 62 
 7 
 10 
1.351
 20 
0.278
 11 
1.37
 21 
0.259
 0 
LINE
 8 
0
 62 
 7 
 10 
1.389
 20 
0.291
 11 
1.396
 21 
0.297
 0 
LINE
 8 
0
 62 
 7 
 10 
1.396
 20 
0.297
 11 
1.396
 21 
0.259
 0 
LINE
 8 
0
 62 
 7 
 10 
1.389
 20 
0.259
 11 
1.402
 21 
0.259
 0 
LINE
 8 
0
 62 
 7 
 10 
1.421
 20 
0.265
 11 
1.421
 21 
0.291
 0 
LINE
 8 
0
 62 
 7 
 10 
1.421
 20 
0.291
 11 
1.427
 21 
0.297
 0 
LINE
 8 
0
 62 
 7 
 10 
1.427
 20 
0.297
 11 
1.44
 21 
0.297
 0 
LINE
 8 
0
 62 
 7 
 10 
1.44
 20 
0.297
 11 
1.446
 21 
0.291
 0 
LINE
 8 
0
 62 
 7 
 10 
1.446
 20 
0.291
 11 
1.446
 21 
0.265
 0 
LINE
 8 
0
 62 
 7 
 10 
1.446
 20 
0.265
 11 
1.44
 21 
0.259
 0 
LINE
 8 
0
 62 
 7 
 10 
1.44
 20 
0.259
 11 
1.427
 21 
0.259
 0 
LINE
 8 
0
 62 
 7 
 10 
1.427
 20 
0.259
 11 
1.421
 21 
0.265
 0 
LINE
 8 
0
 62 
 7 
 10 
1.421
 20 
0.265
 11 
1.446
 21 
0.291
 0 
LINE
 8 
0
 62 
 7 
 10 
1.557
 20 
0.459
 11 
1.557
 21 
0.362
 0 
LINE
 8 
0
 62 
 7 
 10 
1.607
 20 
0.362
 11 
1.558
 21 
0.362
 0 
LINE
 8 
0
 62 
 7 
 10 
1.607
 20 
0.363
 11 
1.607
 21 
0.459
 0 
LINE
 8 
0
 62 
 7 
 10 
1.607
 20 
0.461
 11 
1.557
 21 
0.461
 0 
LINE
 8 
0
 62 
 7 
 10 
1.126
 20 
0.451
 11 
1.126
 21 
0.419
 0 
LINE
 8 
0
 62 
 7 
 10 
1.126
 20 
0.419
 11 
1.132
 21 
0.413
 0 
LINE
 8 
0
 62 
 7 
 10 
1.132
 20 
0.413
 11 
1.145
 21 
0.413
 0 
LINE
 8 
0
 62 
 7 
 10 
1.145
 20 
0.413
 11 
1.151
 21 
0.419
 0 
LINE
 8 
0
 62 
 7 
 10 
1.151
 20 
0.419
 11 
1.151
 21 
0.451
 0 
LINE
 8 
0
 62 
 7 
 10 
1.17
 20 
0.445
 11 
1.177
 21 
0.451
 0 
LINE
 8 
0
 62 
 7 
 10 
1.177
 20 
0.451
 11 
1.177
 21 
0.413
 0 
LINE
 8 
0
 62 
 7 
 10 
1.17
 20 
0.413
 11 
1.183
 21 
0.413
 0 
LINE
 8 
0
 62 
 7 
 10 
1.202
 20 
0.768
 11 
1.202
 21 
0.719
 0 
LINE
 8 
0
 62 
 7 
 10 
1.201
 20 
0.768
 11 
1.105
 21 
0.768
 0 
LINE
 8 
0
 62 
 7 
 10 
1.103
 20 
0.768
 11 
1.103
 21 
0.718
 0 
LINE
 8 
0
 62 
 7 
 10 
1.248
 20 
0.724
 11 
1.248
 21 
0.762
 0 
LINE
 8 
0
 62 
 7 
 10 
1.248
 20 
0.762
 11 
1.267
 21 
0.762
 0 
LINE
 8 
0
 62 
 7 
 10 
1.267
 20 
0.762
 11 
1.273
 21 
0.756
 0 
LINE
 8 
0
 62 
 7 
 10 
1.273
 20 
0.756
 11 
1.273
 21 
0.749
 0 
LINE
 8 
0
 62 
 7 
 10 
1.273
 20 
0.749
 11 
1.267
 21 
0.743
 0 
LINE
 8 
0
 62 
 7 
 10 
1.267
 20 
0.743
 11 
1.248
 21 
0.743
 0 
LINE
 8 
0
 62 
 7 
 10 
1.254
 20 
0.743
 11 
1.273
 21 
0.724
 0 
LINE
 8 
0
 62 
 7 
 10 
1.292
 20 
0.756
 11 
1.299
 21 
0.762
 0 
LINE
 8 
0
 62 
 7 
 10 
1.299
 20 
0.762
 11 
1.299
 21 
0.724
 0 
LINE
 8 
0
 62 
 7 
 10 
1.292
 20 
0.724
 11 
1.305
 21 
0.724
 0 
LINE
 8 
0
 62 
 7 
 10 
1.324
 20 
0.756
 11 
1.33
 21 
0.762
 0 
LINE
 8 
0
 62 
 7 
 10 
1.33
 20 
0.762
 11 
1.343
 21 
0.762
 0 
LINE
 8 
0
 62 
 7 
 10 
1.343
 20 
0.762
 11 
1.349
 21 
0.756
 0 
LINE
 8 
0
 62 
 7 
 10 
1.349
 20 
0.756
 11 
1.349
 21 
0.749
 0 
LINE
 8 
0
 62 
 7 
 10 
1.349
 20 
0.749
 11 
1.343
 21 
0.743
 0 
LINE
 8 
0
 62 
 7 
 10 
1.343
 20 
0.743
 11 
1.33
 21 
0.743
 0 
LINE
 8 
0
 62 
 7 
 10 
1.33
 20 
0.743
 11 
1.324
 21 
0.737
 0 
LINE
 8 
0
 62 
 7 
 10 
1.324
 20 
0.737
 11 
1.324
 21 
0.724
 0 
LINE
 8 
0
 62 
 7 
 10 
1.324
 20 
0.724
 11 
1.349
 21 
0.724
 0 
LINE
 8 
0
 62 
 7 
 10 
1.081
 20 
0.462
 11 
1.081
 21 
0.56
 0 
LINE
 8 
0
 62 
 7 
 10 
1.08
 20 
0.303
 11 
1.08
 21 
0.403
 0 
LINE
 8 
0
 62 
 7 
 10 
1.08
 20 
0.403
 11 
1.105
 21 
0.403
 0 
LINE
 8 
0
 62 
 7 
 10 
1.104
 20 
0.463
 11 
1.086
 21 
0.463
 0 
LINE
 8 
0
 62 
 7 
 10 
1.204
 20 
0.56
 11 
1.082
 21 
0.56
 0 
LINE
 8 
0
 62 
 7 
 10 
1.205
 20 
0.56
 11 
1.205
 21 
0.303
 0 
LINE
 8 
0
 62 
 7 
 10 
1.205
 20 
0.303
 11 
1.08
 21 
0.303
 0 
LINE
 8 
0
 62 
 7 
 10 
1.105
 20 
0.463
 11 
1.105
 21 
0.404
 0 
LINE
 8 
0
 62 
 7 
 10 
1.2
 20 
0.709
 11 
1.103
 21 
0.709
 0 
LINE
 8 
0
 62 
 7 
 10 
1.103
 20 
0.659
 11 
1.103
 21 
0.708
 0 
LINE
 8 
0
 62 
 7 
 10 
1.104
 20 
0.659
 11 
1.2
 21 
0.659
 0 
LINE
 8 
0
 62 
 7 
 10 
1.202
 20 
0.659
 11 
1.202
 21 
0.709
 0 
LINE
 8 
0
 62 
 7 
 10 
1.249
 20 
0.668
 11 
1.249
 21 
0.706
 0 
LINE
 8 
0
 62 
 7 
 10 
1.249
 20 
0.706
 11 
1.268
 21 
0.706
 0 
LINE
 8 
0
 62 
 7 
 10 
1.268
 20 
0.706
 11 
1.274
 21 
0.7
 0 
LINE
 8 
0
 62 
 7 
 10 
1.274
 20 
0.7
 11 
1.274
 21 
0.693
 0 
LINE
 8 
0
 62 
 7 
 10 
1.274
 20 
0.693
 11 
1.268
 21 
0.687
 0 
LINE
 8 
0
 62 
 7 
 10 
1.268
 20 
0.687
 11 
1.249
 21 
0.687
 0 
LINE
 8 
0
 62 
 7 
 10 
1.255
 20 
0.687
 11 
1.274
 21 
0.668
 0 
LINE
 8 
0
 62 
 7 
 10 
1.293
 20 
0.7
 11 
1.3
 21 
0.706
 0 
LINE
 8 
0
 62 
 7 
 10 
1.3
 20 
0.706
 11 
1.3
 21 
0.668
 0 
LINE
 8 
0
 62 
 7 
 10 
1.293
 20 
0.668
 11 
1.306
 21 
0.668
 0 
LINE
 8 
0
 62 
 7 
 10 
1.331
 20 
0.7
 11 
1.338
 21 
0.706
 0 
LINE
 8 
0
 62 
 7 
 10 
1.338
 20 
0.706
 11 
1.338
 21 
0.668
 0 
LINE
 8 
0
 62 
 7 
 10 
1.331
 20 
0.668
 11 
1.344
 21 
0.668
 0 
LINE
 8 
0
 62 
 7 
 10 
2.802
 20 
0.149
 11 
2.783
 21 
0.13
 0 
LINE
 8 
0
 62 
 7 
 10 
2.783
 20 
0.13
 11 
2.802
 21 
0.111
 0 
LINE
 8 
0
 62 
 7 
 10 
2.821
 20 
0.13
 11 
2.846
 21 
0.13
 0 
LINE
 8 
0
 62 
 7 
 10 
2.884
 20 
0.143
 11 
2.878
 21 
0.149
 0 
LINE
 8 
0
 62 
 7 
 10 
2.878
 20 
0.149
 11 
2.865
 21 
0.149
 0 
LINE
 8 
0
 62 
 7 
 10 
2.865
 20 
0.149
 11 
2.859
 21 
0.143
 0 
LINE
 8 
0
 62 
 7 
 10 
2.859
 20 
0.143
 11 
2.859
 21 
0.117
 0 
LINE
 8 
0
 62 
 7 
 10 
2.859
 20 
0.117
 11 
2.865
 21 
0.111
 0 
LINE
 8 
0
 62 
 7 
 10 
2.865
 20 
0.111
 11 
2.884
 21 
0.111
 0 
LINE
 8 
0
 62 
 7 
 10 
2.884
 20 
0.111
 11 
2.884
 21 
0.124
 0 
LINE
 8 
0
 62 
 7 
 10 
2.884
 20 
0.124
 11 
2.878
 21 
0.124
 0 
LINE
 8 
0
 62 
 7 
 10 
2.483
 20 
0.302
 11 
2.483
 21 
0.328
 0 
LINE
 8 
0
 62 
 7 
 10 
2.483
 20 
0.328
 11 
2.489
 21 
0.334
 0 
LINE
 8 
0
 62 
 7 
 10 
2.489
 20 
0.334
 11 
2.502
 21 
0.334
 0 
LINE
 8 
0
 62 
 7 
 10 
2.502
 20 
0.334
 11 
2.508
 21 
0.328
 0 
LINE
 8 
0
 62 
 7 
 10 
2.508
 20 
0.328
 11 
2.508
 21 
0.302
 0 
LINE
 8 
0
 62 
 7 
 10 
2.508
 20 
0.302
 11 
2.502
 21 
0.296
 0 
LINE
 8 
0
 62 
 7 
 10 
2.502
 20 
0.296
 11 
2.489
 21 
0.296
 0 
LINE
 8 
0
 62 
 7 
 10 
2.489
 20 
0.296
 11 
2.483
 21 
0.302
 0 
LINE
 8 
0
 62 
 7 
 10 
2.483
 20 
0.302
 11 
2.508
 21 
0.328
 0 
LINE
 8 
0
 62 
 7 
 10 
1.64
 20 
0.421
 11 
1.634
 21 
0.427
 0 
LINE
 8 
0
 62 
 7 
 10 
1.634
 20 
0.427
 11 
1.621
 21 
0.427
 0 
LINE
 8 
0
 62 
 7 
 10 
1.621
 20 
0.427
 11 
1.615
 21 
0.421
 0 
LINE
 8 
0
 62 
 7 
 10 
1.615
 20 
0.421
 11 
1.615
 21 
0.395
 0 
LINE
 8 
0
 62 
 7 
 10 
1.615
 20 
0.395
 11 
1.621
 21 
0.389
 0 
LINE
 8 
0
 62 
 7 
 10 
1.621
 20 
0.389
 11 
1.634
 21 
0.389
 0 
LINE
 8 
0
 62 
 7 
 10 
1.634
 20 
0.389
 11 
1.64
 21 
0.395
 0 
LINE
 8 
0
 62 
 7 
 10 
1.672
 20 
0.427
 11 
1.666
 21 
0.427
 0 
LINE
 8 
0
 62 
 7 
 10 
1.666
 20 
0.427
 11 
1.653
 21 
0.414
 0 
LINE
 8 
0
 62 
 7 
 10 
1.653
 20 
0.414
 11 
1.653
 21 
0.395
 0 
LINE
 8 
0
 62 
 7 
 10 
1.653
 20 
0.395
 11 
1.659
 21 
0.389
 0 
LINE
 8 
0
 62 
 7 
 10 
1.659
 20 
0.389
 11 
1.672
 21 
0.389
 0 
LINE
 8 
0
 62 
 7 
 10 
1.672
 20 
0.389
 11 
1.678
 21 
0.395
 0 
LINE
 8 
0
 62 
 7 
 10 
1.678
 20 
0.395
 11 
1.678
 21 
0.402
 0 
LINE
 8 
0
 62 
 7 
 10 
1.678
 20 
0.402
 11 
1.672
 21 
0.408
 0 
LINE
 8 
0
 62 
 7 
 10 
1.672
 20 
0.408
 11 
1.659
 21 
0.408
 0 
LINE
 8 
0
 62 
 7 
 10 
1.659
 20 
0.408
 11 
1.653
 21 
0.402
 0 
CIRCLE
 8 
0
 62 
 7 
 10 
2.96
 20 
0.51
 40 
0.02
 0 
CIRCLE
 8 
0
 62 
 7 
 10 
2.96
 20 
0.41
 40 
0.02
 0 
LINE
 8 
0
 62 
 7 
 10 
2.835
 20 
0.57
 11 
3.085
 21 
0.57
 0 
LINE
 8 
0
 62 
 7 
 10 
3.085
 20 
0.35
 11 
3.085
 21 
0.57
 0 
LINE
 8 
0
 62 
 7 
 10 
3.085
 20 
0.35
 11 
2.835
 21 
0.35
 0 
LINE
 8 
0
 62 
 7 
 10 
2.835
 20 
0.57
 11 
2.835
 21 
0.35
 0 
LINE
 8 
0
 62 
 7 
 10 
2.841
 20 
0.51
 11 
2.859
 21 
0.51
 0 
LINE
 8 
0
 62 
 7 
 10 
2.859
 20 
0.41
 11 
2.859
 21 
0.51
 0 
LINE
 8 
0
 62 
 7 
 10 
2.859
 20 
0.41
 11 
2.841
 21 
0.41
 0 
LINE
 8 
0
 62 
 7 
 10 
2.841
 20 
0.51
 11 
2.841
 21 
0.41
 0 
LINE
 8 
0
 62 
 7 
 10 
2.847
 20 
0.51
 11 
2.853
 21 
0.51
 0 
LINE
 8 
0
 62 
 7 
 10 
2.853
 20 
0.41
 11 
2.853
 21 
0.51
 0 
LINE
 8 
0
 62 
 7 
 10 
2.853
 20 
0.41
 11 
2.847
 21 
0.41
 0 
LINE
 8 
0
 62 
 7 
 10 
2.847
 20 
0.51
 11 
2.847
 21 
0.41
 0 
LINE
 8 
0
 62 
 7 
 10 
2.941
 20 
0.321
 11 
2.96
 21 
0.321
 0 
LINE
 8 
0
 62 
 7 
 10 
2.96
 20 
0.321
 11 
2.96
 21 
0.289
 0 
LINE
 8 
0
 62 
 7 
 10 
2.96
 20 
0.289
 11 
2.954
 21 
0.283
 0 
LINE
 8 
0
 62 
 7 
 10 
2.954
 20 
0.283
 11 
2.941
 21 
0.283
 0 
LINE
 8 
0
 62 
 7 
 10 
2.941
 20 
0.283
 11 
2.935
 21 
0.289
 0 
LINE
 8 
0
 62 
 7 
 10 
2.973
 20 
0.315
 11 
2.979
 21 
0.321
 0 
LINE
 8 
0
 62 
 7 
 10 
2.979
 20 
0.321
 11 
2.992
 21 
0.321
 0 
LINE
 8 
0
 62 
 7 
 10 
2.992
 20 
0.321
 11 
2.998
 21 
0.315
 0 
LINE
 8 
0
 62 
 7 
 10 
2.998
 20 
0.315
 11 
2.998
 21 
0.308
 0 
LINE
 8 
0
 62 
 7 
 10 
2.998
 20 
0.308
 11 
2.992
 21 
0.302
 0 
LINE
 8 
0
 62 
 7 
 10 
2.992
 20 
0.302
 11 
2.979
 21 
0.302
 0 
LINE
 8 
0
 62 
 7 
 10 
2.979
 20 
0.302
 11 
2.973
 21 
0.296
 0 
LINE
 8 
0
 62 
 7 
 10 
2.973
 20 
0.296
 11 
2.973
 21 
0.283
 0 
LINE
 8 
0
 62 
 7 
 10 
2.973
 20 
0.283
 11 
2.998
 21 
0.283
 0 
LINE
 8 
0
 62 
 7 
 10 
2.731
 20 
0.672
 11 
2.81
 21 
0.672
 0 
LINE
 8 
0
 62 
 7 
 10 
2.832
 20 
0.675
 11 
2.832
 21 
0.775
 0 
LINE
 8 
0
 62 
 7 
 10 
2.81
 20 
0.778
 11 
2.731
 21 
0.778
 0 
LINE
 8 
0
 62 
 7 
 10 
2.659
 20 
0.672
 11 
2.58
 21 
0.672
 0 
LINE
 8 
0
 62 
 7 
 10 
2.58
 20 
0.672
 11 
2.58
 21 
0.778
 0 
LINE
 8 
0
 62 
 7 
 10 
2.58
 20 
0.778
 11 
2.659
 21 
0.778
 0 
LINE
 8 
0
 62 
 7 
 10 
2.894
 20 
0.696
 11 
2.888
 21 
0.702
 0 
LINE
 8 
0
 62 
 7 
 10 
2.888
 20 
0.702
 11 
2.875
 21 
0.702
 0 
LINE
 8 
0
 62 
 7 
 10 
2.875
 20 
0.702
 11 
2.869
 21 
0.696
 0 
LINE
 8 
0
 62 
 7 
 10 
2.869
 20 
0.696
 11 
2.869
 21 
0.67
 0 
LINE
 8 
0
 62 
 7 
 10 
2.869
 20 
0.67
 11 
2.875
 21 
0.664
 0 
LINE
 8 
0
 62 
 7 
 10 
2.875
 20 
0.664
 11 
2.888
 21 
0.664
 0 
LINE
 8 
0
 62 
 7 
 10 
2.888
 20 
0.664
 11 
2.894
 21 
0.67
 0 
LINE
 8 
0
 62 
 7 
 10 
2.907
 20 
0.696
 11 
2.913
 21 
0.702
 0 
LINE
 8 
0
 62 
 7 
 10 
2.913
 20 
0.702
 11 
2.926
 21 
0.702
 0 
LINE
 8 
0
 62 
 7 
 10 
2.926
 20 
0.702
 11 
2.932
 21 
0.696
 0 
LINE
 8 
0
 62 
 7 
 10 
2.932
 20 
0.696
 11 
2.932
 21 
0.689
 0 
LINE
 8 
0
 62 
 7 
 10 
2.932
 20 
0.689
 11 
2.926
 21 
0.683
 0 
LINE
 8 
0
 62 
 7 
 10 
2.926
 20 
0.683
 11 
2.92
 21 
0.683
 0 
LINE
 8 
0
 62 
 7 
 10 
2.926
 20 
0.683
 11 
2.932
 21 
0.677
 0 
LINE
 8 
0
 62 
 7 
 10 
2.932
 20 
0.677
 11 
2.932
 21 
0.67
 0 
LINE
 8 
0
 62 
 7 
 10 
2.932
 20 
0.67
 11 
2.926
 21 
0.664
 0 
LINE
 8 
0
 62 
 7 
 10 
2.926
 20 
0.664
 11 
2.913
 21 
0.664
 0 
LINE
 8 
0
 62 
 7 
 10 
2.913
 20 
0.664
 11 
2.907
 21 
0.67
 0 
LINE
 8 
0
 62 
 7 
 10 
2.135
 20 
0.844
 11 
2.135
 21 
0.825
 0 
LINE
 8 
0
 62 
 7 
 10 
2.135
 20 
0.825
 11 
2.141
 21 
0.819
 0 
LINE
 8 
0
 62 
 7 
 10 
2.141
 20 
0.819
 11 
2.148
 21 
0.825
 0 
LINE
 8 
0
 62 
 7 
 10 
2.148
 20 
0.825
 11 
2.148
 21 
0.832
 0 
LINE
 8 
0
 62 
 7 
 10 
2.148
 20 
0.825
 11 
2.154
 21 
0.819
 0 
LINE
 8 
0
 62 
 7 
 10 
2.154
 20 
0.819
 11 
2.16
 21 
0.825
 0 
LINE
 8 
0
 62 
 7 
 10 
2.16
 20 
0.825
 11 
2.16
 21 
0.844
 0 
LINE
 8 
0
 62 
 7 
 10 
2.173
 20 
0.844
 11 
2.173
 21 
0.825
 0 
LINE
 8 
0
 62 
 7 
 10 
2.173
 20 
0.825
 11 
2.179
 21 
0.819
 0 
LINE
 8 
0
 62 
 7 
 10 
2.179
 20 
0.819
 11 
2.186
 21 
0.825
 0 
LINE
 8 
0
 62 
 7 
 10 
2.186
 20 
0.825
 11 
2.186
 21 
0.832
 0 
LINE
 8 
0
 62 
 7 
 10 
2.186
 20 
0.825
 11 
2.192
 21 
0.819
 0 
LINE
 8 
0
 62 
 7 
 10 
2.192
 20 
0.819
 11 
2.198
 21 
0.825
 0 
LINE
 8 
0
 62 
 7 
 10 
2.198
 20 
0.825
 11 
2.198
 21 
0.844
 0 
LINE
 8 
0
 62 
 7 
 10 
2.211
 20 
0.844
 11 
2.211
 21 
0.825
 0 
LINE
 8 
0
 62 
 7 
 10 
2.211
 20 
0.825
 11 
2.217
 21 
0.819
 0 
LINE
 8 
0
 62 
 7 
 10 
2.217
 20 
0.819
 11 
2.224
 21 
0.825
 0 
LINE
 8 
0
 62 
 7 
 10 
2.224
 20 
0.825
 11 
2.224
 21 
0.832
 0 
LINE
 8 
0
 62 
 7 
 10 
2.224
 20 
0.825
 11 
2.23
 21 
0.819
 0 
LINE
 8 
0
 62 
 7 
 10 
2.23
 20 
0.819
 11 
2.236
 21 
0.825
 0 
LINE
 8 
0
 62 
 7 
 10 
2.236
 20 
0.825
 11 
2.236
 21 
0.844
 0 
LINE
 8 
0
 62 
 7 
 10 
2.262
 20 
0.819
 11 
2.255
 21 
0.819
 0 
LINE
 8 
0
 62 
 7 
 10 
2.255
 20 
0.819
 11 
2.255
 21 
0.825
 0 
LINE
 8 
0
 62 
 7 
 10 
2.255
 20 
0.825
 11 
2.262
 21 
0.825
 0 
LINE
 8 
0
 62 
 7 
 10 
2.262
 20 
0.825
 11 
2.262
 21 
0.819
 0 
LINE
 8 
0
 62 
 7 
 10 
2.293
 20 
0.844
 11 
2.306
 21 
0.844
 0 
LINE
 8 
0
 62 
 7 
 10 
2.306
 20 
0.844
 11 
2.312
 21 
0.838
 0 
LINE
 8 
0
 62 
 7 
 10 
2.312
 20 
0.838
 11 
2.312
 21 
0.819
 0 
LINE
 8 
0
 62 
 7 
 10 
2.312
 20 
0.832
 11 
2.293
 21 
0.832
 0 
LINE
 8 
0
 62 
 7 
 10 
2.293
 20 
0.832
 11 
2.287
 21 
0.825
 0 
LINE
 8 
0
 62 
 7 
 10 
2.287
 20 
0.825
 11 
2.293
 21 
0.819
 0 
LINE
 8 
0
 62 
 7 
 10 
2.293
 20 
0.819
 11 
2.306
 21 
0.819
 0 
LINE
 8 
0
 62 
 7 
 10 
2.306
 20 
0.819
 11 
2.312
 21 
0.825
 0 
LINE
 8 
0
 62 
 7 
 10 
2.35
 20 
0.844
 11 
2.331
 21 
0.844
 0 
LINE
 8 
0
 62 
 7 
 10 
2.331
 20 
0.844
 11 
2.325
 21 
0.838
 0 
LINE
 8 
0
 62 
 7 
 10 
2.325
 20 
0.838
 11 
2.331
 21 
0.832
 0 
LINE
 8 
0
 62 
 7 
 10 
2.331
 20 
0.832
 11 
2.344
 21 
0.832
 0 
LINE
 8 
0
 62 
 7 
 10 
2.344
 20 
0.832
 11 
2.35
 21 
0.825
 0 
LINE
 8 
0
 62 
 7 
 10 
2.35
 20 
0.825
 11 
2.344
 21 
0.819
 0 
LINE
 8 
0
 62 
 7 
 10 
2.344
 20 
0.819
 11 
2.325
 21 
0.819
 0 
LINE
 8 
0
 62 
 7 
 10 
2.363
 20 
0.844
 11 
2.363
 21 
0.806
 0 
LINE
 8 
0
 62 
 7 
 10 
2.363
 20 
0.838
 11 
2.369
 21 
0.844
 0 
LINE
 8 
0
 62 
 7 
 10 
2.369
 20 
0.844
 11 
2.382
 21 
0.844
 0 
LINE
 8 
0
 62 
 7 
 10 
2.382
 20 
0.844
 11 
2.388
 21 
0.838
 0 
LINE
 8 
0
 62 
 7 
 10 
2.388
 20 
0.838
 11 
2.388
 21 
0.825
 0 
LINE
 8 
0
 62 
 7 
 10 
2.388
 20 
0.825
 11 
2.382
 21 
0.819
 0 
LINE
 8 
0
 62 
 7 
 10 
2.382
 20 
0.819
 11 
2.376
 21 
0.819
 0 
LINE
 8 
0
 62 
 7 
 10 
2.376
 20 
0.819
 11 
2.363
 21 
0.832
 0 
LINE
 8 
0
 62 
 7 
 10 
2.401
 20 
0.838
 11 
2.426
 21 
0.838
 0 
LINE
 8 
0
 62 
 7 
 10 
2.464
 20 
0.844
 11 
2.445
 21 
0.844
 0 
LINE
 8 
0
 62 
 7 
 10 
2.445
 20 
0.844
 11 
2.439
 21 
0.838
 0 
LINE
 8 
0
 62 
 7 
 10 
2.439
 20 
0.838
 11 
2.445
 21 
0.832
 0 
LINE
 8 
0
 62 
 7 
 10 
2.445
 20 
0.832
 11 
2.458
 21 
0.832
 0 
LINE
 8 
0
 62 
 7 
 10 
2.458
 20 
0.832
 11 
2.464
 21 
0.825
 0 
LINE
 8 
0
 62 
 7 
 10 
2.464
 20 
0.825
 11 
2.458
 21 
0.819
 0 
LINE
 8 
0
 62 
 7 
 10 
2.458
 20 
0.819
 11 
2.439
 21 
0.819
 0 
LINE
 8 
0
 62 
 7 
 10 
2.477
 20 
0.844
 11 
2.477
 21 
0.825
 0 
LINE
 8 
0
 62 
 7 
 10 
2.477
 20 
0.825
 11 
2.483
 21 
0.819
 0 
LINE
 8 
0
 62 
 7 
 10 
2.483
 20 
0.819
 11 
2.49
 21 
0.819
 0 
LINE
 8 
0
 62 
 7 
 10 
2.49
 20 
0.819
 11 
2.502
 21 
0.832
 0 
LINE
 8 
0
 62 
 7 
 10 
2.502
 20 
0.844
 11 
2.502
 21 
0.819
 0 
LINE
 8 
0
 62 
 7 
 10 
2.515
 20 
0.844
 11 
2.515
 21 
0.806
 0 
LINE
 8 
0
 62 
 7 
 10 
2.515
 20 
0.838
 11 
2.521
 21 
0.844
 0 
LINE
 8 
0
 62 
 7 
 10 
2.521
 20 
0.844
 11 
2.534
 21 
0.844
 0 
LINE
 8 
0
 62 
 7 
 10 
2.534
 20 
0.844
 11 
2.54
 21 
0.838
 0 
LINE
 8 
0
 62 
 7 
 10 
2.54
 20 
0.838
 11 
2.54
 21 
0.825
 0 
LINE
 8 
0
 62 
 7 
 10 
2.54
 20 
0.825
 11 
2.534
 21 
0.819
 0 
LINE
 8 
0
 62 
 7 
 10 
2.534
 20 
0.819
 11 
2.528
 21 
0.819
 0 
LINE
 8 
0
 62 
 7 
 10 
2.528
 20 
0.819
 11 
2.515
 21 
0.832
 0 
LINE
 8 
0
 62 
 7 
 10 
2.553
 20 
0.844
 11 
2.553
 21 
0.806
 0 
LINE
 8 
0
 62 
 7 
 10 
2.553
 20 
0.838
 11 
2.559
 21 
0.844
 0 
LINE
 8 
0
 62 
 7 
 10 
2.559
 20 
0.844
 11 
2.572
 21 
0.844
 0 
LINE
 8 
0
 62 
 7 
 10 
2.572
 20 
0.844
 11 
2.578
 21 
0.838
 0 
LINE
 8 
0
 62 
 7 
 10 
2.578
 20 
0.838
 11 
2.578
 21 
0.825
 0 
LINE
 8 
0
 62 
 7 
 10 
2.578
 20 
0.825
 11 
2.572
 21 
0.819
 0 
LINE
 8 
0
 62 
 7 
 10 
2.572
 20 
0.819
 11 
2.566
 21 
0.819
 0 
LINE
 8 
0
 62 
 7 
 10 
2.566
 20 
0.819
 11 
2.553
 21 
0.832
 0 
LINE
 8 
0
 62 
 7 
 10 
2.616
 20 
0.838
 11 
2.61
 21 
0.844
 0 
LINE
 8 
0
 62 
 7 
 10 
2.61
 20 
0.844
 11 
2.597
 21 
0.844
 0 
LINE
 8 
0
 62 
 7 
 10 
2.597
 20 
0.844
 11 
2.591
 21 
0.838
 0 
LINE
 8 
0
 62 
 7 
 10 
2.591
 20 
0.838
 11 
2.591
 21 
0.825
 0 
LINE
 8 
0
 62 
 7 
 10 
2.591
 20 
0.825
 11 
2.597
 21 
0.819
 0 
LINE
 8 
0
 62 
 7 
 10 
2.597
 20 
0.819
 11 
2.61
 21 
0.819
 0 
LINE
 8 
0
 62 
 7 
 10 
2.61
 20 
0.819
 11 
2.616
 21 
0.825
 0 
LINE
 8 
0
 62 
 7 
 10 
2.616
 20 
0.825
 11 
2.616
 21 
0.838
 0 
LINE
 8 
0
 62 
 7 
 10 
2.629
 20 
0.844
 11 
2.629
 21 
0.819
 0 
LINE
 8 
0
 62 
 7 
 10 
2.629
 20 
0.832
 11 
2.642
 21 
0.844
 0 
LINE
 8 
0
 62 
 7 
 10 
2.642
 20 
0.844
 11 
2.648
 21 
0.844
 0 
LINE
 8 
0
 62 
 7 
 10 
2.648
 20 
0.844
 11 
2.654
 21 
0.838
 0 
LINE
 8 
0
 62 
 7 
 10 
2.673
 20 
0.857
 11 
2.673
 21 
0.825
 0 
LINE
 8 
0
 62 
 7 
 10 
2.673
 20 
0.825
 11 
2.68
 21 
0.819
 0 
LINE
 8 
0
 62 
 7 
 10 
2.68
 20 
0.819
 11 
2.686
 21 
0.819
 0 
LINE
 8 
0
 62 
 7 
 10 
2.686
 20 
0.819
 11 
2.692
 21 
0.825
 0 
LINE
 8 
0
 62 
 7 
 10 
2.667
 20 
0.844
 11 
2.686
 21 
0.844
 0 
LINE
 8 
0
 62 
 7 
 10 
2.718
 20 
0.819
 11 
2.711
 21 
0.819
 0 
LINE
 8 
0
 62 
 7 
 10 
2.711
 20 
0.819
 11 
2.711
 21 
0.825
 0 
LINE
 8 
0
 62 
 7 
 10 
2.711
 20 
0.825
 11 
2.718
 21 
0.825
 0 
LINE
 8 
0
 62 
 7 
 10 
2.718
 20 
0.825
 11 
2.718
 21 
0.819
 0 
LINE
 8 
0
 62 
 7 
 10 
2.768
 20 
0.838
 11 
2.762
 21 
0.844
 0 
LINE
 8 
0
 62 
 7 
 10 
2.762
 20 
0.844
 11 
2.749
 21 
0.844
 0 
LINE
 8 
0
 62 
 7 
 10 
2.749
 20 
0.844
 11 
2.743
 21 
0.838
 0 
LINE
 8 
0
 62 
 7 
 10 
2.743
 20 
0.838
 11 
2.743
 21 
0.825
 0 
LINE
 8 
0
 62 
 7 
 10 
2.743
 20 
0.825
 11 
2.749
 21 
0.819
 0 
LINE
 8 
0
 62 
 7 
 10 
2.749
 20 
0.819
 11 
2.762
 21 
0.819
 0 
LINE
 8 
0
 62 
 7 
 10 
2.762
 20 
0.819
 11 
2.768
 21 
0.825
 0 
LINE
 8 
0
 62 
 7 
 10 
2.806
 20 
0.838
 11 
2.8
 21 
0.844
 0 
LINE
 8 
0
 62 
 7 
 10 
2.8
 20 
0.844
 11 
2.787
 21 
0.844
 0 
LINE
 8 
0
 62 
 7 
 10 
2.787
 20 
0.844
 11 
2.781
 21 
0.838
 0 
LINE
 8 
0
 62 
 7 
 10 
2.781
 20 
0.838
 11 
2.781
 21 
0.825
 0 
LINE
 8 
0
 62 
 7 
 10 
2.781
 20 
0.825
 11 
2.787
 21 
0.819
 0 
LINE
 8 
0
 62 
 7 
 10 
2.787
 20 
0.819
 11 
2.8
 21 
0.819
 0 
LINE
 8 
0
 62 
 7 
 10 
2.8
 20 
0.819
 11 
2.806
 21 
0.825
 0 
LINE
 8 
0
 62 
 7 
 10 
2.806
 20 
0.825
 11 
2.806
 21 
0.838
 0 
LINE
 8 
0
 62 
 7 
 10 
2.819
 20 
0.844
 11 
2.819
 21 
0.819
 0 
LINE
 8 
0
 62 
 7 
 10 
2.819
 20 
0.838
 11 
2.825
 21 
0.844
 0 
LINE
 8 
0
 62 
 7 
 10 
2.825
 20 
0.844
 11 
2.832
 21 
0.838
 0 
LINE
 8 
0
 62 
 7 
 10 
2.832
 20 
0.838
 11 
2.832
 21 
0.819
 0 
LINE
 8 
0
 62 
 7 
 10 
2.832
 20 
0.838
 11 
2.838
 21 
0.844
 0 
LINE
 8 
0
 62 
 7 
 10 
2.838
 20 
0.844
 11 
2.844
 21 
0.838
 0 
LINE
 8 
0
 62 
 7 
 10 
2.844
 20 
0.838
 11 
2.844
 21 
0.819
 0 
LINE
 8 
0
 62 
 7 
 10 
2.596
 20 
0.445
 11 
2.596
 21 
0.348
 0 
LINE
 8 
0
 62 
 7 
 10 
2.52
 20 
0.351
 11 
2.52
 21 
0.448
 0 
LINE
 8 
0
 62 
 7 
 10 
2.646
 20 
0.348
 11 
2.597
 21 
0.348
 0 
CIRCLE
 8 
0
 62 
 7 
 10 
2.495
 20 
0.232
 40 
0.018
 0 
CIRCLE
 8 
0
 62 
 7 
 10 
2.495
 20 
0.132
 40 
0.018
 0 
LINE
 8 
0
 62 
 7 
 10 
2.646
 20 
0.349
 11 
2.646
 21 
0.445
 0 
CIRCLE
 8 
0
 62 
 7 
 10 
2.395
 20 
0.232
 40 
0.018
 0 
CIRCLE
 8 
0
 62 
 7 
 10 
2.395
 20 
0.132
 40 
0.018
 0 
CIRCLE
 8 
0
 62 
 7 
 10 
2.295
 20 
0.232
 40 
0.018
 0 
CIRCLE
 8 
0
 62 
 7 
 10 
2.295
 20 
0.132
 40 
0.018
 0 
CIRCLE
 8 
0
 62 
 7 
 10 
2.195
 20 
0.232
 40 
0.018
 0 
CIRCLE
 8 
0
 62 
 7 
 10 
2.195
 20 
0.132
 40 
0.018
 0 
LINE
 8 
0
 62 
 7 
 10 
2.076
 20 
0.338
 11 
2.095
 21 
0.338
 0 
LINE
 8 
0
 62 
 7 
 10 
2.095
 20 
0.338
 11 
2.095
 21 
0.306
 0 
LINE
 8 
0
 62 
 7 
 10 
2.095
 20 
0.306
 11 
2.089
 21 
0.3
 0 
LINE
 8 
0
 62 
 7 
 10 
2.089
 20 
0.3
 11 
2.076
 21 
0.3
 0 
LINE
 8 
0
 62 
 7 
 10 
2.076
 20 
0.3
 11 
2.07
 21 
0.306
 0 
LINE
 8 
0
 62 
 7 
 10 
2.108
 20 
0.332
 11 
2.114
 21 
0.338
 0 
LINE
 8 
0
 62 
 7 
 10 
2.114
 20 
0.338
 11 
2.127
 21 
0.338
 0 
LINE
 8 
0
 62 
 7 
 10 
2.127
 20 
0.338
 11 
2.133
 21 
0.332
 0 
LINE
 8 
0
 62 
 7 
 10 
2.133
 20 
0.332
 11 
2.133
 21 
0.325
 0 
LINE
 8 
0
 62 
 7 
 10 
2.133
 20 
0.325
 11 
2.127
 21 
0.319
 0 
LINE
 8 
0
 62 
 7 
 10 
2.127
 20 
0.319
 11 
2.121
 21 
0.319
 0 
LINE
 8 
0
 62 
 7 
 10 
2.127
 20 
0.319
 11 
2.133
 21 
0.313
 0 
LINE
 8 
0
 62 
 7 
 10 
2.133
 20 
0.313
 11 
2.133
 21 
0.306
 0 
LINE
 8 
0
 62 
 7 
 10 
2.133
 20 
0.306
 11 
2.127
 21 
0.3
 0 
LINE
 8 
0
 62 
 7 
 10 
2.127
 20 
0.3
 11 
2.114
 21 
0.3
 0 
LINE
 8 
0
 62 
 7 
 10 
2.114
 20 
0.3
 11 
2.108
 21 
0.306
 0 
LINE
 8 
0
 62 
 7 
 10 
2.545
 20 
0.282
 11 
2.545
 21 
0.082
 0 
LINE
 8 
0
 62 
 7 
 10 
2.145
 20 
0.082
 11 
2.545
 21 
0.082
 0 
LINE
 8 
0
 62 
 7 
 10 
2.145
 20 
0.082
 11 
2.145
 21 
0.282
 0 
LINE
 8 
0
 62 
 7 
 10 
2.545
 20 
0.282
 11 
2.145
 21 
0.282
 0 
LINE
 8 
0
 62 
 7 
 10 
1.623
 20 
0.285
 11 
1.584
 21 
0.285
 0 
LINE
 8 
0
 62 
 7 
 10 
1.584
 20 
0.285
 11 
1.584
 21 
0.085
 0 
CIRCLE
 8 
0
 62 
 7 
 10 
0.403
 20 
0.698
 40 
0.02
 0 
CIRCLE
 8 
0
 62 
 7 
 10 
0.403
 20 
0.598
 40 
0.02
 0 
CIRCLE
 8 
0
 62 
 7 
 10 
0.403
 20 
0.498
 40 
0.02
 0 
LINE
 8 
0
 62 
 7 
 10 
1.584
 20 
0.085
 11 
1.696
 21 
0.085
 0 
LINE
 8 
0
 62 
 7 
 10 
1.696
 20 
0.085
 11 
1.696
 21 
0.285
 0 
LINE
 8 
0
 62 
 7 
 10 
1.696
 20 
0.285
 11 
1.657
 21 
0.285
 0 
LINE
 8 
0
 62 
 7 
 10 
1.657
 20 
0.285
 11 
1.657
 21 
0.251
 0 
LINE
 8 
0
 62 
 7 
 10 
1.657
 20 
0.251
 11 
1.623
 21 
0.251
 0 
LINE
 8 
0
 62 
 7 
 10 
1.623
 20 
0.251
 11 
1.623
 21 
0.285
 0 
LINE
 8 
0
 62 
 7 
 10 
1.609
 20 
0.342
 11 
1.609
 21 
0.31
 0 
LINE
 8 
0
 62 
 7 
 10 
1.609
 20 
0.31
 11 
1.615
 21 
0.304
 0 
LINE
 8 
0
 62 
 7 
 10 
1.615
 20 
0.304
 11 
1.628
 21 
0.304
 0 
LINE
 8 
0
 62 
 7 
 10 
1.628
 20 
0.304
 11 
1.634
 21 
0.31
 0 
LINE
 8 
0
 62 
 7 
 10 
1.634
 20 
0.31
 11 
1.634
 21 
0.342
 0 
LINE
 8 
0
 62 
 7 
 10 
1.672
 20 
0.342
 11 
1.647
 21 
0.342
 0 
LINE
 8 
0
 62 
 7 
 10 
1.647
 20 
0.342
 11 
1.647
 21 
0.329
 0 
LINE
 8 
0
 62 
 7 
 10 
1.647
 20 
0.329
 11 
1.666
 21 
0.329
 0 
LINE
 8 
0
 62 
 7 
 10 
1.666
 20 
0.329
 11 
1.672
 21 
0.323
 0 
LINE
 8 
0
 62 
 7 
 10 
1.672
 20 
0.323
 11 
1.672
 21 
0.31
 0 
LINE
 8 
0
 62 
 7 
 10 
1.672
 20 
0.31
 11 
1.666
 21 
0.304
 0 
LINE
 8 
0
 62 
 7 
 10 
1.666
 20 
0.304
 11 
1.653
 21 
0.304
 0 
LINE
 8 
0
 62 
 7 
 10 
1.653
 20 
0.304
 11 
1.647
 21 
0.31
 0 
LINE
 8 
0
 62 
 7 
 10 
2.723
 20 
0.612
 11 
2.723
 21 
0.515
 0 
LINE
 8 
0
 62 
 7 
 10 
2.773
 20 
0.515
 11 
2.724
 21 
0.515
 0 
LINE
 8 
0
 62 
 7 
 10 
2.773
 20 
0.516
 11 
2.773
 21 
0.612
 0 
LINE
 8 
0
 62 
 7 
 10 
2.773
 20 
0.614
 11 
2.723
 21 
0.614
 0 
LINE
 8 
0
 62 
 7 
 10 
2.81
 20 
0.627
 11 
2.804
 21 
0.633
 0 
LINE
 8 
0
 62 
 7 
 10 
2.804
 20 
0.633
 11 
2.791
 21 
0.633
 0 
LINE
 8 
0
 62 
 7 
 10 
2.791
 20 
0.633
 11 
2.785
 21 
0.627
 0 
LINE
 8 
0
 62 
 7 
 10 
2.785
 20 
0.627
 11 
2.785
 21 
0.601
 0 
LINE
 8 
0
 62 
 7 
 10 
2.785
 20 
0.601
 11 
2.791
 21 
0.595
 0 
LINE
 8 
0
 62 
 7 
 10 
2.791
 20 
0.595
 11 
2.804
 21 
0.595
 0 
LINE
 8 
0
 62 
 7 
 10 
2.804
 20 
0.595
 11 
2.81
 21 
0.601
 0 
LINE
 8 
0
 62 
 7 
 10 
2.823
 20 
0.627
 11 
2.823
 21 
0.633
 0 
LINE
 8 
0
 62 
 7 
 10 
2.823
 20 
0.633
 11 
2.848
 21 
0.633
 0 
LINE
 8 
0
 62 
 7 
 10 
2.848
 20 
0.633
 11 
2.848
 21 
0.627
 0 
LINE
 8 
0
 62 
 7 
 10 
2.848
 20 
0.627
 11 
2.829
 21 
0.608
 0 
LINE
 8 
0
 62 
 7 
 10 
2.829
 20 
0.608
 11 
2.829
 21 
0.595
 0 
LINE
 8 
0
 62 
 7 
 10 
1.97
 20 
0.568
 11 
1.873
 21 
0.568
 0 
LINE
 8 
0
 62 
 7 
 10 
1.873
 20 
0.518
 11 
1.873
 21 
0.567
 0 
LINE
 8 
0
 62 
 7 
 10 
1.874
 20 
0.518
 11 
1.97
 21 
0.518
 0 
LINE
 8 
0
 62 
 7 
 10 
1.972
 20 
0.518
 11 
1.972
 21 
0.568
 0 
LINE
 8 
0
 62 
 7 
 10 
1.99
 20 
0.524
 11 
1.99
 21 
0.562
 0 
LINE
 8 
0
 62 
 7 
 10 
1.99
 20 
0.562
 11 
2.009
 21 
0.562
 0 
LINE
 8 
0
 62 
 7 
 10 
2.009
 20 
0.562
 11 
2.015
 21 
0.556
 0 
LINE
 8 
0
 62 
 7 
 10 
2.015
 20 
0.556
 11 
2.015
 21 
0.549
 0 
LINE
 8 
0
 62 
 7 
 10 
2.015
 20 
0.549
 11 
2.009
 21 
0.543
 0 
LINE
 8 
0
 62 
 7 
 10 
2.009
 20 
0.543
 11 
1.99
 21 
0.543
 0 
LINE
 8 
0
 62 
 7 
 10 
1.996
 20 
0.543
 11 
2.015
 21 
0.524
 0 
LINE
 8 
0
 62 
 7 
 10 
2.028
 20 
0.556
 11 
2.034
 21 
0.562
 0 
LINE
 8 
0
 62 
 7 
 10 
2.034
 20 
0.562
 11 
2.047
 21 
0.562
 0 
LINE
 8 
0
 62 
 7 
 10 
2.047
 20 
0.562
 11 
2.053
 21 
0.556
 0 
LINE
 8 
0
 62 
 7 
 10 
2.053
 20 
0.556
 11 
2.053
 21 
0.549
 0 
LINE
 8 
0
 62 
 7 
 10 
2.053
 20 
0.549
 11 
2.047
 21 
0.543
 0 
LINE
 8 
0
 62 
 7 
 10 
2.047
 20 
0.543
 11 
2.034
 21 
0.543
 0 
LINE
 8 
0
 62 
 7 
 10 
2.034
 20 
0.543
 11 
2.028
 21 
0.537
 0 
LINE
 8 
0
 62 
 7 
 10 
2.028
 20 
0.537
 11 
2.028
 21 
0.524
 0 
LINE
 8 
0
 62 
 7 
 10 
2.028
 20 
0.524
 11 
2.053
 21 
0.524
 0 
LINE
 8 
0
 62 
 7 
 10 
2.066
 20 
0.53
 11 
2.066
 21 
0.556
 0 
LINE
 8 
0
 62 
 7 
 10 
2.066
 20 
0.556
 11 
2.072
 21 
0.562
 0 
LINE
 8 
0
 62 
 7 
 10 
2.072
 20 
0.562
 11 
2.085
 21 
0.562
 0 
LINE
 8 
0
 62 
 7 
 10 
2.085
 20 
0.562
 11 
2.091
 21 
0.556
 0 
LINE
 8 
0
 62 
 7 
 10 
2.091
 20 
0.556
 11 
2.091
 21 
0.53
 0 
LINE
 8 
0
 62 
 7 
 10 
2.091
 20 
0.53
 11 
2.085
 21 
0.524
 0 
LINE
 8 
0
 62 
 7 
 10 
2.085
 20 
0.524
 11 
2.072
 21 
0.524
 0 
LINE
 8 
0
 62 
 7 
 10 
2.072
 20 
0.524
 11 
2.066
 21 
0.53
 0 
LINE
 8 
0
 62 
 7 
 10 
2.066
 20 
0.53
 11 
2.091
 21 
0.556
 0 
LINE
 8 
0
 62 
 7 
 10 
1.964
 20 
0.311
 11 
1.867
 21 
0.311
 0 
LINE
 8 
0
 62 
 7 
 10 
1.867
 20 
0.261
 11 
1.867
 21 
0.31
 0 
LINE
 8 
0
 62 
 7 
 10 
1.868
 20 
0.261
 11 
1.964
 21 
0.261
 0 
LINE
 8 
0
 62 
 7 
 10 
1.966
 20 
0.261
 11 
1.966
 21 
0.311
 0 
LINE
 8 
0
 62 
 7 
 10 
1.974
 20 
0.267
 11 
1.974
 21 
0.305
 0 
LINE
 8 
0
 62 
 7 
 10 
1.974
 20 
0.305
 11 
1.993
 21 
0.305
 0 
LINE
 8 
0
 62 
 7 
 10 
1.993
 20 
0.305
 11 
1.999
 21 
0.299
 0 
LINE
 8 
0
 62 
 7 
 10 
1.999
 20 
0.299
 11 
1.999
 21 
0.292
 0 
LINE
 8 
0
 62 
 7 
 10 
1.999
 20 
0.292
 11 
1.993
 21 
0.286
 0 
LINE
 8 
0
 62 
 7 
 10 
1.993
 20 
0.286
 11 
1.974
 21 
0.286
 0 
LINE
 8 
0
 62 
 7 
 10 
1.98
 20 
0.286
 11 
1.999
 21 
0.267
 0 
LINE
 8 
0
 62 
 7 
 10 
2.018
 20 
0.299
 11 
2.025
 21 
0.305
 0 
LINE
 8 
0
 62 
 7 
 10 
2.025
 20 
0.305
 11 
2.025
 21 
0.267
 0 
LINE
 8 
0
 62 
 7 
 10 
2.018
 20 
0.267
 11 
2.031
 21 
0.267
 0 
LINE
 8 
0
 62 
 7 
 10 
2.05
 20 
0.299
 11 
2.056
 21 
0.305
 0 
LINE
 8 
0
 62 
 7 
 10 
2.056
 20 
0.305
 11 
2.069
 21 
0.305
 0 
LINE
 8 
0
 62 
 7 
 10 
2.069
 20 
0.305
 11 
2.075
 21 
0.299
 0 
LINE
 8 
0
 62 
 7 
 10 
2.075
 20 
0.299
 11 
2.075
 21 
0.292
 0 
LINE
 8 
0
 62 
 7 
 10 
2.075
 20 
0.292
 11 
2.069
 21 
0.286
 0 
LINE
 8 
0
 62 
 7 
 10 
2.069
 20 
0.286
 11 
2.063
 21 
0.286
 0 
LINE
 8 
0
 62 
 7 
 10 
2.069
 20 
0.286
 11 
2.075
 21 
0.28
 0 
LINE
 8 
0
 62 
 7 
 10 
2.075
 20 
0.28
 11 
2.075
 21 
0.273
 0 
LINE
 8 
0
 62 
 7 
 10 
2.075
 20 
0.273
 11 
2.069
 21 
0.267
 0 
LINE
 8 
0
 62 
 7 
 10 
2.069
 20 
0.267
 11 
2.056
 21 
0.267
 0 
LINE
 8 
0
 62 
 7 
 10 
2.056
 20 
0.267
 11 
2.05
 21 
0.273
 0 
LINE
 8 
0
 62 
 7 
 10 
1.623
 20 
0.712
 11 
1.584
 21 
0.712
 0 
LINE
 8 
0
 62 
 7 
 10 
1.584
 20 
0.712
 11 
1.584
 21 
0.512
 0 
LINE
 8 
0
 62 
 7 
 10 
1.584
 20 
0.512
 11 
1.696
 21 
0.512
 0 
LINE
 8 
0
 62 
 7 
 10 
2.646
 20 
0.447
 11 
2.596
 21 
0.447
 0 
LINE
 8 
0
 62 
 7 
 10 
1.696
 20 
0.512
 11 
1.696
 21 
0.712
 0 
LINE
 8 
0
 62 
 7 
 10 
1.696
 20 
0.712
 11 
1.657
 21 
0.712
 0 
LINE
 8 
0
 62 
 7 
 10 
2.555
 20 
0.464
 11 
2.555
 21 
0.502
 0 
LINE
 8 
0
 62 
 7 
 10 
2.555
 20 
0.502
 11 
2.574
 21 
0.502
 0 
LINE
 8 
0
 62 
 7 
 10 
2.574
 20 
0.502
 11 
2.58
 21 
0.496
 0 
LINE
 8 
0
 62 
 7 
 10 
2.58
 20 
0.496
 11 
2.58
 21 
0.489
 0 
LINE
 8 
0
 62 
 7 
 10 
2.58
 20 
0.489
 11 
2.574
 21 
0.483
 0 
LINE
 8 
0
 62 
 7 
 10 
2.574
 20 
0.483
 11 
2.555
 21 
0.483
 0 
LINE
 8 
0
 62 
 7 
 10 
2.561
 20 
0.483
 11 
2.58
 21 
0.464
 0 
LINE
 8 
0
 62 
 7 
 10 
2.593
 20 
0.496
 11 
2.599
 21 
0.502
 0 
LINE
 8 
0
 62 
 7 
 10 
2.599
 20 
0.502
 11 
2.612
 21 
0.502
 0 
LINE
 8 
0
 62 
 7 
 10 
2.612
 20 
0.502
 11 
2.618
 21 
0.496
 0 
LINE
 8 
0
 62 
 7 
 10 
2.618
 20 
0.496
 11 
2.618
 21 
0.489
 0 
LINE
 8 
0
 62 
 7 
 10 
2.618
 20 
0.489
 11 
2.612
 21 
0.483
 0 
LINE
 8 
0
 62 
 7 
 10 
2.612
 20 
0.483
 11 
2.599
 21 
0.483
 0 
LINE
 8 
0
 62 
 7 
 10 
2.599
 20 
0.483
 11 
2.593
 21 
0.477
 0 
LINE
 8 
0
 62 
 7 
 10 
2.593
 20 
0.477
 11 
2.593
 21 
0.464
 0 
LINE
 8 
0
 62 
 7 
 10 
2.593
 20 
0.464
 11 
2.618
 21 
0.464
 0 
LINE
 8 
0
 62 
 7 
 10 
2.65
 20 
0.502
 11 
2.644
 21 
0.502
 0 
LINE
 8 
0
 62 
 7 
 10 
2.644
 20 
0.502
 11 
2.631
 21 
0.489
 0 
LINE
 8 
0
 62 
 7 
 10 
2.631
 20 
0.489
 11 
2.631
 21 
0.47
 0 
LINE
 8 
0
 62 
 7 
 10 
2.631
 20 
0.47
 11 
2.637
 21 
0.464
 0 
LINE
 8 
0
 62 
 7 
 10 
2.637
 20 
0.464
 11 
2.65
 21 
0.464
 0 
LINE
 8 
0
 62 
 7 
 10 
2.65
 20 
0.464
 11 
2.656
 21 
0.47
 0 
LINE
 8 
0
 62 
 7 
 10 
2.656
 20 
0.47
 11 
2.656
 21 
0.477
 0 
LINE
 8 
0
 62 
 7 
 10 
2.656
 20 
0.477
 11 
2.65
 21 
0.483
 0 
LINE
 8 
0
 62 
 7 
 10 
2.65
 20 
0.483
 11 
2.637
 21 
0.483
 0 
LINE
 8 
0
 62 
 7 
 10 
2.637
 20 
0.483
 11 
2.631
 21 
0.477
 0 
LINE
 8 
0
 62 
 7 
 10 
1.657
 20 
0.712
 11 
1.657
 21 
0.678
 0 
LINE
 8 
0
 62 
 7 
 10 
1.657
 20 
0.678
 11 
1.623
 21 
0.678
 0 
LINE
 8 
0
 62 
 7 
 10 
1.623
 20 
0.678
 11 
1.623
 21 
0.712
 0 
LINE
 8 
0
 62 
 7 
 10 
1.612
 20 
0.5
 11 
1.612
 21 
0.468
 0 
LINE
 8 
0
 62 
 7 
 10 
1.612
 20 
0.468
 11 
1.618
 21 
0.462
 0 
LINE
 8 
0
 62 
 7 
 10 
1.618
 20 
0.462
 11 
1.631
 21 
0.462
 0 
LINE
 8 
0
 62 
 7 
 10 
1.631
 20 
0.462
 11 
1.637
 21 
0.468
 0 
LINE
 8 
0
 62 
 7 
 10 
1.637
 20 
0.468
 11 
1.637
 21 
0.5
 0 
LINE
 8 
0
 62 
 7 
 10 
1.669
 20 
0.5
 11 
1.663
 21 
0.5
 0 
LINE
 8 
0
 62 
 7 
 10 
1.663
 20 
0.5
 11 
1.65
 21 
0.487
 0 
LINE
 8 
0
 62 
 7 
 10 
1.65
 20 
0.487
 11 
1.65
 21 
0.468
 0 
LINE
 8 
0
 62 
 7 
 10 
1.65
 20 
0.468
 11 
1.656
 21 
0.462
 0 
LINE
 8 
0
 62 
 7 
 10 
1.656
 20 
0.462
 11 
1.669
 21 
0.462
 0 
LINE
 8 
0
 62 
 7 
 10 
1.669
 20 
0.462
 11 
1.675
 21 
0.468
 0 
LINE
 8 
0
 62 
 7 
 10 
1.675
 20 
0.468
 11 
1.675
 21 
0.475
 0 
LINE
 8 
0
 62 
 7 
 10 
1.675
 20 
0.475
 11 
1.669
 21 
0.481
 0 
LINE
 8 
0
 62 
 7 
 10 
1.669
 20 
0.481
 11 
1.656
 21 
0.481
 0 
LINE
 8 
0
 62 
 7 
 10 
1.656
 20 
0.481
 11 
1.65
 21 
0.475
 0 
LINE
 8 
0
 62 
 7 
 10 
1.84
 20 
0.778
 11 
1.743
 21 
0.778
 0 
LINE
 8 
0
 62 
 7 
 10 
1.743
 20 
0.728
 11 
1.743
 21 
0.777
 0 
LINE
 8 
0
 62 
 7 
 10 
1.744
 20 
0.728
 11 
1.84
 21 
0.728
 0 
LINE
 8 
0
 62 
 7 
 10 
1.842
 20 
0.728
 11 
1.842
 21 
0.778
 0 
LINE
 8 
0
 62 
 7 
 10 
1.657
 20 
0.767
 11 
1.651
 21 
0.773
 0 
LINE
 8 
0
 62 
 7 
 10 
1.651
 20 
0.773
 11 
1.638
 21 
0.773
 0 
LINE
 8 
0
 62 
 7 
 10 
1.638
 20 
0.773
 11 
1.632
 21 
0.767
 0 
LINE
 8 
0
 62 
 7 
 10 
1.632
 20 
0.767
 11 
1.632
 21 
0.741
 0 
LINE
 8 
0
 62 
 7 
 10 
1.632
 20 
0.741
 11 
1.638
 21 
0.735
 0 
LINE
 8 
0
 62 
 7 
 10 
1.638
 20 
0.735
 11 
1.651
 21 
0.735
 0 
LINE
 8 
0
 62 
 7 
 10 
1.651
 20 
0.735
 11 
1.657
 21 
0.741
 0 
LINE
 8 
0
 62 
 7 
 10 
1.676
 20 
0.767
 11 
1.683
 21 
0.773
 0 
LINE
 8 
0
 62 
 7 
 10 
1.683
 20 
0.773
 11 
1.683
 21 
0.735
 0 
LINE
 8 
0
 62 
 7 
 10 
1.676
 20 
0.735
 11 
1.689
 21 
0.735
 0 
LINE
 8 
0
 62 
 7 
 10 
1.708
 20 
0.741
 11 
1.708
 21 
0.767
 0 
LINE
 8 
0
 62 
 7 
 10 
1.708
 20 
0.767
 11 
1.714
 21 
0.773
 0 
LINE
 8 
0
 62 
 7 
 10 
1.714
 20 
0.773
 11 
1.727
 21 
0.773
 0 
LINE
 8 
0
 62 
 7 
 10 
1.727
 20 
0.773
 11 
1.733
 21 
0.767
 0 
LINE
 8 
0
 62 
 7 
 10 
1.733
 20 
0.767
 11 
1.733
 21 
0.741
 0 
LINE
 8 
0
 62 
 7 
 10 
1.733
 20 
0.741
 11 
1.727
 21 
0.735
 0 
LINE
 8 
0
 62 
 7 
 10 
1.727
 20 
0.735
 11 
1.714
 21 
0.735
 0 
LINE
 8 
0
 62 
 7 
 10 
1.714
 20 
0.735
 11 
1.708
 21 
0.741
 0 
LINE
 8 
0
 62 
 7 
 10 
1.708
 20 
0.741
 11 
1.733
 21 
0.767
 0 
CIRCLE
 8 
0
 62 
 7 
 10 
0.403
 20 
0.398
 40 
0.02
 0 
CIRCLE
 8 
0
 62 
 7 
 10 
0.403
 20 
0.298
 40 
0.02
 0 
CIRCLE
 8 
0
 62 
 7 
 10 
0.403
 20 
0.198
 40 
0.02
 0 
LINE
 8 
0
 62 
 7 
 10 
0.338
 20 
0.747
 11 
0.463
 21 
0.747
 0 
LINE
 8 
0
 62 
 7 
 10 
0.463
 20 
0.147
 11 
0.463
 21 
0.747
 0 
LINE
 8 
0
 62 
 7 
 10 
0.463
 20 
0.147
 11 
0.338
 21 
0.147
 0 
LINE
 8 
0
 62 
 7 
 10 
0.338
 20 
0.747
 11 
0.338
 21 
0.147
 0 
LINE
 8 
0
 62 
 7 
 10 
0.379
 20 
0.122
 11 
0.398
 21 
0.122
 0 
LINE
 8 
0
 62 
 7 
 10 
0.398
 20 
0.122
 11 
0.398
 21 
0.09
 0 
LINE
 8 
0
 62 
 7 
 10 
0.398
 20 
0.09
 11 
0.392
 21 
0.084
 0 
LINE
 8 
0
 62 
 7 
 10 
0.392
 20 
0.084
 11 
0.379
 21 
0.084
 0 
LINE
 8 
0
 62 
 7 
 10 
0.379
 20 
0.084
 11 
0.373
 21 
0.09
 0 
LINE
 8 
0
 62 
 7 
 10 
0.417
 20 
0.116
 11 
0.424
 21 
0.122
 0 
LINE
 8 
0
 62 
 7 
 10 
0.424
 20 
0.122
 11 
0.424
 21 
0.084
 0 
LINE
 8 
0
 62 
 7 
 10 
0.417
 20 
0.084
 11 
0.43
 21 
0.084
 0 
LINE
 8 
0
 62 
 7 
 10 
2.388
 20 
0.329
 11 
2.395
 21 
0.335
 0 
LINE
 8 
0
 62 
 7 
 10 
2.395
 20 
0.335
 11 
2.395
 21 
0.297
 0 
LINE
 8 
0
 62 
 7 
 10 
2.388
 20 
0.297
 11 
2.401
 21 
0.297
 0 
CIRCLE
 8 
0
 62 
 7 
 10 
3.0
 20 
0.1
 40 
0.062
 0 
LINE
 8 
0
 62 
 7 
 10 
1.965
 20 
0.251
 11 
1.868
 21 
0.251
 0 
LINE
 8 
0
 62 
 7 
 10 
1.868
 20 
0.201
 11 
1.868
 21 
0.25
 0 
LINE
 8 
0
 62 
 7 
 10 
1.869
 20 
0.201
 11 
1.965
 21 
0.201
 0 
LINE
 8 
0
 62 
 7 
 10 
1.967
 20 
0.201
 11 
1.967
 21 
0.251
 0 
LINE
 8 
0
 62 
 7 
 10 
1.975
 20 
0.207
 11 
1.975
 21 
0.245
 0 
LINE
 8 
0
 62 
 7 
 10 
1.975
 20 
0.245
 11 
1.994
 21 
0.245
 0 
LINE
 8 
0
 62 
 7 
 10 
1.994
 20 
0.245
 11 
2.0
 21 
0.239
 0 
LINE
 8 
0
 62 
 7 
 10 
2.0
 20 
0.239
 11 
2.0
 21 
0.232
 0 
LINE
 8 
0
 62 
 7 
 10 
2.0
 20 
0.232
 11 
1.994
 21 
0.226
 0 
LINE
 8 
0
 62 
 7 
 10 
1.994
 20 
0.226
 11 
1.975
 21 
0.226
 0 
LINE
 8 
0
 62 
 7 
 10 
1.981
 20 
0.226
 11 
2.0
 21 
0.207
 0 
LINE
 8 
0
 62 
 7 
 10 
2.019
 20 
0.239
 11 
2.026
 21 
0.245
 0 
LINE
 8 
0
 62 
 7 
 10 
2.026
 20 
0.245
 11 
2.026
 21 
0.207
 0 
LINE
 8 
0
 62 
 7 
 10 
2.019
 20 
0.207
 11 
2.032
 21 
0.207
 0 
LINE
 8 
0
 62 
 7 
 10 
2.076
 20 
0.22
 11 
2.051
 21 
0.22
 0 
LINE
 8 
0
 62 
 7 
 10 
2.051
 20 
0.22
 11 
2.051
 21 
0.226
 0 
LINE
 8 
0
 62 
 7 
 10 
2.051
 20 
0.226
 11 
2.07
 21 
0.245
 0 
LINE
 8 
0
 62 
 7 
 10 
2.07
 20 
0.245
 11 
2.07
 21 
0.207
 0 
LINE
 8 
0
 62 
 7 
 10 
1.965
 20 
0.191
 11 
1.868
 21 
0.191
 0 
LINE
 8 
0
 62 
 7 
 10 
1.868
 20 
0.141
 11 
1.868
 21 
0.19
 0 
LINE
 8 
0
 62 
 7 
 10 
1.869
 20 
0.141
 11 
1.965
 21 
0.141
 0 
LINE
 8 
0
 62 
 7 
 10 
1.967
 20 
0.141
 11 
1.967
 21 
0.191
 0 
LINE
 8 
0
 62 
 7 
 10 
1.975
 20 
0.146
 11 
1.975
 21 
0.184
 0 
LINE
 8 
0
 62 
 7 
 10 
1.975
 20 
0.184
 11 
1.994
 21 
0.184
 0 
LINE
 8 
0
 62 
 7 
 10 
1.994
 20 
0.184
 11 
2.0
 21 
0.178
 0 
LINE
 8 
0
 62 
 7 
 10 
2.0
 20 
0.178
 11 
2.0
 21 
0.171
 0 
LINE
 8 
0
 62 
 7 
 10 
2.0
 20 
0.171
 11 
1.994
 21 
0.165
 0 
LINE
 8 
0
 62 
 7 
 10 
1.994
 20 
0.165
 11 
1.975
 21 
0.165
 0 
LINE
 8 
0
 62 
 7 
 10 
1.981
 20 
0.165
 11 
2.0
 21 
0.146
 0 
LINE
 8 
0
 62 
 7 
 10 
2.019
 20 
0.178
 11 
2.026
 21 
0.184
 0 
LINE
 8 
0
 62 
 7 
 10 
2.026
 20 
0.184
 11 
2.026
 21 
0.146
 0 
LINE
 8 
0
 62 
 7 
 10 
2.019
 20 
0.146
 11 
2.032
 21 
0.146
 0 
LINE
 8 
0
 62 
 7 
 10 
2.076
 20 
0.184
 11 
2.051
 21 
0.184
 0 
LINE
 8 
0
 62 
 7 
 10 
2.051
 20 
0.184
 11 
2.051
 21 
0.171
 0 
LINE
 8 
0
 62 
 7 
 10 
2.051
 20 
0.171
 11 
2.07
 21 
0.171
 0 
LINE
 8 
0
 62 
 7 
 10 
2.07
 20 
0.171
 11 
2.076
 21 
0.165
 0 
LINE
 8 
0
 62 
 7 
 10 
2.076
 20 
0.165
 11 
2.076
 21 
0.152
 0 
LINE
 8 
0
 62 
 7 
 10 
2.076
 20 
0.152
 11 
2.07
 21 
0.146
 0 
LINE
 8 
0
 62 
 7 
 10 
2.07
 20 
0.146
 11 
2.057
 21 
0.146
 0 
LINE
 8 
0
 62 
 7 
 10 
2.057
 20 
0.146
 11 
2.051
 21 
0.152
 0 
LINE
 8 
0
 62 
 7 
 10 
2.305
 20 
0.722
 11 
2.266
 21 
0.722
 0 
LINE
 8 
0
 62 
 7 
 10 
2.266
 20 
0.722
 11 
2.266
 21 
0.522
 0 
LINE
 8 
0
 62 
 7 
 10 
2.266
 20 
0.522
 11 
2.378
 21 
0.522
 0 
LINE
 8 
0
 62 
 7 
 10 
2.378
 20 
0.522
 11 
2.378
 21 
0.722
 0 
LINE
 8 
0
 62 
 7 
 10 
2.378
 20 
0.722
 11 
2.339
 21 
0.722
 0 
LINE
 8 
0
 62 
 7 
 10 
2.339
 20 
0.722
 11 
2.339
 21 
0.688
 0 
LINE
 8 
0
 62 
 7 
 10 
2.339
 20 
0.688
 11 
2.305
 21 
0.688
 0 
LINE
 8 
0
 62 
 7 
 10 
2.305
 20 
0.688
 11 
2.305
 21 
0.722
 0 
LINE
 8 
0
 62 
 7 
 10 
2.292
 20 
0.775
 11 
2.292
 21 
0.743
 0 
LINE
 8 
0
 62 
 7 
 10 
2.292
 20 
0.743
 11 
2.298
 21 
0.737
 0 
LINE
 8 
0
 62 
 7 
 10 
2.298
 20 
0.737
 11 
2.311
 21 
0.737
 0 
LINE
 8 
0
 62 
 7 
 10 
2.311
 20 
0.737
 11 
2.317
 21 
0.743
 0 
LINE
 8 
0
 62 
 7 
 10 
2.317
 20 
0.743
 11 
2.317
 21 
0.775
 0 
LINE
 8 
0
 62 
 7 
 10 
2.33
 20 
0.769
 11 
2.33
 21 
0.775
 0 
LINE
 8 
0
 62 
 7 
 10 
2.33
 20 
0.775
 11 
2.355
 21 
0.775
 0 
LINE
 8 
0
 62 
 7 
 10 
2.355
 20 
0.775
 11 
2.355
 21 
0.769
 0 
LINE
 8 
0
 62 
 7 
 10 
2.355
 20 
0.769
 11 
2.336
 21 
0.75
 0 
LINE
 8 
0
 62 
 7 
 10 
2.336
 20 
0.75
 11 
2.336
 21 
0.737
 0 
LINE
 8 
0
 62 
 7 
 10 
2.522
 20 
0.791
 11 
2.425
 21 
0.791
 0 
LINE
 8 
0
 62 
 7 
 10 
2.425
 20 
0.741
 11 
2.425
 21 
0.79
 0 
LINE
 8 
0
 62 
 7 
 10 
2.426
 20 
0.741
 11 
2.522
 21 
0.741
 0 
LINE
 8 
0
 62 
 7 
 10 
2.524
 20 
0.741
 11 
2.524
 21 
0.791
 0 
LINE
 8 
0
 62 
 7 
 10 
2.503
 20 
0.656
 11 
2.497
 21 
0.65
 0 
LINE
 8 
0
 62 
 7 
 10 
2.497
 20 
0.65
 11 
2.497
 21 
0.637
 0 
LINE
 8 
0
 62 
 7 
 10 
2.497
 20 
0.637
 11 
2.503
 21 
0.631
 0 
LINE
 8 
0
 62 
 7 
 10 
2.503
 20 
0.631
 11 
2.529
 21 
0.631
 0 
LINE
 8 
0
 62 
 7 
 10 
2.529
 20 
0.631
 11 
2.535
 21 
0.637
 0 
LINE
 8 
0
 62 
 7 
 10 
2.535
 20 
0.637
 11 
2.535
 21 
0.65
 0 
LINE
 8 
0
 62 
 7 
 10 
2.535
 20 
0.65
 11 
2.529
 21 
0.656
 0 
LINE
 8 
0
 62 
 7 
 10 
2.503
 20 
0.675
 11 
2.497
 21 
0.682
 0 
LINE
 8 
0
 62 
 7 
 10 
2.497
 20 
0.682
 11 
2.535
 21 
0.682
 0 
LINE
 8 
0
 62 
 7 
 10 
2.535
 20 
0.675
 11 
2.535
 21 
0.688
 0 
LINE
 8 
0
 62 
 7 
 10 
2.503
 20 
0.713
 11 
2.497
 21 
0.72
 0 
LINE
 8 
0
 62 
 7 
 10 
2.497
 20 
0.72
 11 
2.535
 21 
0.72
 0 
LINE
 8 
0
 62 
 7 
 10 
2.535
 20 
0.713
 11 
2.535
 21 
0.726
 0 
LINE
 8 
0
 62 
 7 
 10 
1.999
 20 
0.443
 11 
1.967
 21 
0.443
 0 
LINE
 8 
0
 62 
 7 
 10 
1.999
 20 
0.443
 11 
1.999
 21 
0.343
 0 
LINE
 8 
0
 62 
 7 
 10 
1.999
 20 
0.343
 11 
1.967
 21 
0.343
 0 
LINE
 8 
0
 62 
 7 
 10 
1.967
 20 
0.443
 11 
1.967
 21 
0.343
 0 
CIRCLE
 8 
0
 62 
 7 
 10 
1.978
 20 
0.431
 40 
0.005
 0 
LINE
 8 
0
 62 
 7 
 10 
2.053
 20 
0.414
 11 
2.053
 21 
0.382
 0 
LINE
 8 
0
 62 
 7 
 10 
2.053
 20 
0.382
 11 
2.059
 21 
0.376
 0 
LINE
 8 
0
 62 
 7 
 10 
2.059
 20 
0.376
 11 
2.072
 21 
0.376
 0 
LINE
 8 
0
 62 
 7 
 10 
2.072
 20 
0.376
 11 
2.078
 21 
0.382
 0 
LINE
 8 
0
 62 
 7 
 10 
2.078
 20 
0.382
 11 
2.078
 21 
0.414
 0 
LINE
 8 
0
 62 
 7 
 10 
2.097
 20 
0.395
 11 
2.091
 21 
0.401
 0 
LINE
 8 
0
 62 
 7 
 10 
2.091
 20 
0.401
 11 
2.091
 21 
0.408
 0 
LINE
 8 
0
 62 
 7 
 10 
2.091
 20 
0.408
 11 
2.097
 21 
0.414
 0 
LINE
 8 
0
 62 
 7 
 10 
2.097
 20 
0.414
 11 
2.11
 21 
0.414
 0 
LINE
 8 
0
 62 
 7 
 10 
2.11
 20 
0.414
 11 
2.116
 21 
0.408
 0 
LINE
 8 
0
 62 
 7 
 10 
2.116
 20 
0.408
 11 
2.116
 21 
0.401
 0 
LINE
 8 
0
 62 
 7 
 10 
2.116
 20 
0.401
 11 
2.11
 21 
0.395
 0 
LINE
 8 
0
 62 
 7 
 10 
2.11
 20 
0.395
 11 
2.097
 21 
0.395
 0 
LINE
 8 
0
 62 
 7 
 10 
2.097
 20 
0.395
 11 
2.091
 21 
0.389
 0 
LINE
 8 
0
 62 
 7 
 10 
2.091
 20 
0.389
 11 
2.091
 21 
0.382
 0 
LINE
 8 
0
 62 
 7 
 10 
2.091
 20 
0.382
 11 
2.097
 21 
0.376
 0 
LINE
 8 
0
 62 
 7 
 10 
2.097
 20 
0.376
 11 
2.11
 21 
0.376
 0 
LINE
 8 
0
 62 
 7 
 10 
2.11
 20 
0.376
 11 
2.116
 21 
0.382
 0 
LINE
 8 
0
 62 
 7 
 10 
2.116
 20 
0.382
 11 
2.116
 21 
0.389
 0 
LINE
 8 
0
 62 
 7 
 10 
2.116
 20 
0.389
 11 
2.11
 21 
0.395
 0 
CIRCLE
 8 
0
 62 
 7 
 10 
2.721
 20 
0.232
 40 
0.018
 0 
CIRCLE
 8 
0
 62 
 7 
 10 
2.721
 20 
0.132
 40 
0.018
 0 
CIRCLE
 8 
0
 62 
 7 
 10 
2.621
 20 
0.232
 40 
0.018
 0 
CIRCLE
 8 
0
 62 
 7 
 10 
2.621
 20 
0.132
 40 
0.018
 0 
LINE
 8 
0
 62 
 7 
 10 
2.798
 20 
0.256
 11 
2.817
 21 
0.256
 0 
LINE
 8 
0
 62 
 7 
 10 
2.817
 20 
0.256
 11 
2.817
 21 
0.224
 0 
LINE
 8 
0
 62 
 7 
 10 
2.817
 20 
0.224
 11 
2.811
 21 
0.218
 0 
LINE
 8 
0
 62 
 7 
 10 
2.811
 20 
0.218
 11 
2.798
 21 
0.218
 0 
LINE
 8 
0
 62 
 7 
 10 
2.798
 20 
0.218
 11 
2.792
 21 
0.224
 0 
LINE
 8 
0
 62 
 7 
 10 
2.855
 20 
0.231
 11 
2.83
 21 
0.231
 0 
LINE
 8 
0
 62 
 7 
 10 
2.83
 20 
0.231
 11 
2.83
 21 
0.237
 0 
LINE
 8 
0
 62 
 7 
 10 
2.83
 20 
0.237
 11 
2.849
 21 
0.256
 0 
LINE
 8 
0
 62 
 7 
 10 
2.849
 20 
0.256
 11 
2.849
 21 
0.218
 0 
LINE
 8 
0
 62 
 7 
 10 
2.714
 20 
0.332
 11 
2.733
 21 
0.332
 0 
LINE
 8 
0
 62 
 7 
 10 
2.733
 20 
0.332
 11 
2.739
 21 
0.326
 0 
LINE
 8 
0
 62 
 7 
 10 
2.739
 20 
0.326
 11 
2.739
 21 
0.3
 0 
LINE
 8 
0
 62 
 7 
 10 
2.739
 20 
0.3
 11 
2.733
 21 
0.294
 0 
LINE
 8 
0
 62 
 7 
 10 
2.733
 20 
0.294
 11 
2.714
 21 
0.294
 0 
LINE
 8 
0
 62 
 7 
 10 
2.72
 20 
0.332
 11 
2.72
 21 
0.294
 0 
LINE
 8 
0
 62 
 7 
 10 
2.608
 20 
0.297
 11 
2.608
 21 
0.322
 0 
LINE
 8 
0
 62 
 7 
 10 
2.608
 20 
0.322
 11 
2.621
 21 
0.335
 0 
LINE
 8 
0
 62 
 7 
 10 
2.621
 20 
0.335
 11 
2.633
 21 
0.322
 0 
LINE
 8 
0
 62 
 7 
 10 
2.633
 20 
0.322
 11 
2.633
 21 
0.297
 0 
LINE
 8 
0
 62 
 7 
 10 
2.608
 20 
0.31
 11 
2.633
 21 
0.31
 0 
LINE
 8 
0
 62 
 7 
 10 
2.771
 20 
0.282
 11 
2.771
 21 
0.082
 0 
LINE
 8 
0
 62 
 7 
 10 
2.571
 20 
0.082
 11 
2.771
 21 
0.082
 0 
LINE
 8 
0
 62 
 7 
 10 
2.571
 20 
0.082
 11 
2.571
 21 
0.282
 0 
LINE
 8 
0
 62 
 7 
 10 
2.771
 20 
0.282
 11 
2.571
 21 
0.282
 0 
LINE
 8 
0
 62 
 7 
 10 
1.964
 20 
0.131
 11 
1.867
 21 
0.131
 0 
LINE
 8 
0
 62 
 7 
 10 
1.867
 20 
0.081
 11 
1.867
 21 
0.13
 0 
LINE
 8 
0
 62 
 7 
 10 
1.868
 20 
0.081
 11 
1.964
 21 
0.081
 0 
LINE
 8 
0
 62 
 7 
 10 
1.966
 20 
0.081
 11 
1.966
 21 
0.131
 0 
LINE
 8 
0
 62 
 7 
 10 
1.976
 20 
0.086
 11 
1.976
 21 
0.124
 0 
LINE
 8 
0
 62 
 7 
 10 
1.976
 20 
0.124
 11 
1.995
 21 
0.124
 0 
LINE
 8 
0
 62 
 7 
 10 
1.995
 20 
0.124
 11 
2.001
 21 
0.118
 0 
LINE
 8 
0
 62 
 7 
 10 
2.001
 20 
0.118
 11 
2.001
 21 
0.111
 0 
LINE
 8 
0
 62 
 7 
 10 
2.001
 20 
0.111
 11 
1.995
 21 
0.105
 0 
LINE
 8 
0
 62 
 7 
 10 
1.995
 20 
0.105
 11 
1.976
 21 
0.105
 0 
LINE
 8 
0
 62 
 7 
 10 
1.982
 20 
0.105
 11 
2.001
 21 
0.086
 0 
LINE
 8 
0
 62 
 7 
 10 
2.02
 20 
0.118
 11 
2.027
 21 
0.124
 0 
LINE
 8 
0
 62 
 7 
 10 
2.027
 20 
0.124
 11 
2.027
 21 
0.086
 0 
LINE
 8 
0
 62 
 7 
 10 
2.02
 20 
0.086
 11 
2.033
 21 
0.086
 0 
LINE
 8 
0
 62 
 7 
 10 
2.071
 20 
0.124
 11 
2.065
 21 
0.124
 0 
LINE
 8 
0
 62 
 7 
 10 
2.065
 20 
0.124
 11 
2.052
 21 
0.111
 0 
LINE
 8 
0
 62 
 7 
 10 
2.052
 20 
0.111
 11 
2.052
 21 
0.092
 0 
LINE
 8 
0
 62 
 7 
 10 
2.052
 20 
0.092
 11 
2.058
 21 
0.086
 0 
LINE
 8 
0
 62 
 7 
 10 
2.058
 20 
0.086
 11 
2.071
 21 
0.086
 0 
LINE
 8 
0
 62 
 7 
 10 
2.071
 20 
0.086
 11 
2.077
 21 
0.092
 0 
LINE
 8 
0
 62 
 7 
 10 
2.077
 20 
0.092
 11 
2.077
 21 
0.099
 0 
LINE
 8 
0
 62 
 7 
 10 
2.077
 20 
0.099
 11 
2.071
 21 
0.105
 0 
LINE
 8 
0
 62 
 7 
 10 
2.071
 20 
0.105
 11 
2.058
 21 
0.105
 0 
LINE
 8 
0
 62 
 7 
 10 
2.058
 20 
0.105
 11 
2.052
 21 
0.099
 0 
LINE
 8 
0
 62 
 7 
 10 
2.681
 20 
0.562
 11 
2.681
 21 
0.612
 0 
LINE
 8 
0
 62 
 7 
 10 
2.681
 20 
0.562
 11 
2.581
 21 
0.562
 0 
LINE
 8 
0
 62 
 7 
 10 
2.581
 20 
0.562
 11 
2.581
 21 
0.612
 0 
LINE
 8 
0
 62 
 7 
 10 
1.969
 20 
0.742
 11 
1.872
 21 
0.742
 0 
LINE
 8 
0
 62 
 7 
 10 
1.872
 20 
0.692
 11 
1.872
 21 
0.741
 0 
LINE
 8 
0
 62 
 7 
 10 
1.873
 20 
0.692
 11 
1.969
 21 
0.692
 0 
LINE
 8 
0
 62 
 7 
 10 
1.971
 20 
0.692
 11 
1.971
 21 
0.742
 0 
LINE
 8 
0
 62 
 7 
 10 
1.987
 20 
0.697
 11 
1.987
 21 
0.735
 0 
LINE
 8 
0
 62 
 7 
 10 
1.987
 20 
0.735
 11 
2.006
 21 
0.735
 0 
LINE
 8 
0
 62 
 7 
 10 
2.006
 20 
0.735
 11 
2.012
 21 
0.729
 0 
LINE
 8 
0
 62 
 7 
 10 
2.012
 20 
0.729
 11 
2.012
 21 
0.722
 0 
LINE
 8 
0
 62 
 7 
 10 
2.012
 20 
0.722
 11 
2.006
 21 
0.716
 0 
LINE
 8 
0
 62 
 7 
 10 
2.006
 20 
0.716
 11 
1.987
 21 
0.716
 0 
LINE
 8 
0
 62 
 7 
 10 
1.993
 20 
0.716
 11 
2.012
 21 
0.697
 0 
LINE
 8 
0
 62 
 7 
 10 
2.031
 20 
0.729
 11 
2.038
 21 
0.735
 0 
LINE
 8 
0
 62 
 7 
 10 
2.038
 20 
0.735
 11 
2.038
 21 
0.697
 0 
LINE
 8 
0
 62 
 7 
 10 
2.031
 20 
0.697
 11 
2.044
 21 
0.697
 0 
LINE
 8 
0
 62 
 7 
 10 
2.063
 20 
0.729
 11 
2.063
 21 
0.735
 0 
LINE
 8 
0
 62 
 7 
 10 
2.063
 20 
0.735
 11 
2.088
 21 
0.735
 0 
LINE
 8 
0
 62 
 7 
 10 
2.088
 20 
0.735
 11 
2.088
 21 
0.729
 0 
LINE
 8 
0
 62 
 7 
 10 
2.088
 20 
0.729
 11 
2.069
 21 
0.71
 0 
LINE
 8 
0
 62 
 7 
 10 
2.069
 20 
0.71
 11 
2.069
 21 
0.697
 0 
LINE
 8 
0
 62 
 7 
 10 
2.681
 20 
0.612
 11 
2.581
 21 
0.612
 0 
CIRCLE
 8 
0
 62 
 7 
 10 
2.669
 20 
0.601
 40 
0.005
 0 
LINE
 8 
0
 62 
 7 
 10 
2.503
 20 
0.602
 11 
2.503
 21 
0.57
 0 
LINE
 8 
0
 62 
 7 
 10 
2.503
 20 
0.57
 11 
2.509
 21 
0.564
 0 
LINE
 8 
0
 62 
 7 
 10 
2.509
 20 
0.564
 11 
2.522
 21 
0.564
 0 
LINE
 8 
0
 62 
 7 
 10 
2.522
 20 
0.564
 11 
2.528
 21 
0.57
 0 
LINE
 8 
0
 62 
 7 
 10 
2.528
 20 
0.57
 11 
2.528
 21 
0.602
 0 
LINE
 8 
0
 62 
 7 
 10 
2.566
 20 
0.577
 11 
2.541
 21 
0.577
 0 
LINE
 8 
0
 62 
 7 
 10 
2.541
 20 
0.577
 11 
2.541
 21 
0.583
 0 
LINE
 8 
0
 62 
 7 
 10 
2.541
 20 
0.583
 11 
2.56
 21 
0.602
 0 
LINE
 8 
0
 62 
 7 
 10 
2.56
 20 
0.602
 11 
2.56
 21 
0.564
 0 
LINE
 8 
0
 62 
 7 
 10 
1.97
 20 
0.683
 11 
1.873
 21 
0.683
 0 
LINE
 8 
0
 62 
 7 
 10 
1.873
 20 
0.633
 11 
1.873
 21 
0.682
 0 
LINE
 8 
0
 62 
 7 
 10 
1.874
 20 
0.633
 11 
1.97
 21 
0.633
 0 
LINE
 8 
0
 62 
 7 
 10 
1.972
 20 
0.633
 11 
1.972
 21 
0.683
 0 
LINE
 8 
0
 62 
 7 
 10 
1.988
 20 
0.639
 11 
1.988
 21 
0.677
 0 
LINE
 8 
0
 62 
 7 
 10 
1.988
 20 
0.677
 11 
2.007
 21 
0.677
 0 
LINE
 8 
0
 62 
 7 
 10 
2.007
 20 
0.677
 11 
2.013
 21 
0.671
 0 
LINE
 8 
0
 62 
 7 
 10 
2.013
 20 
0.671
 11 
2.013
 21 
0.664
 0 
LINE
 8 
0
 62 
 7 
 10 
2.013
 20 
0.664
 11 
2.007
 21 
0.658
 0 
LINE
 8 
0
 62 
 7 
 10 
2.007
 20 
0.658
 11 
1.988
 21 
0.658
 0 
LINE
 8 
0
 62 
 7 
 10 
1.994
 20 
0.658
 11 
2.013
 21 
0.639
 0 
LINE
 8 
0
 62 
 7 
 10 
2.032
 20 
0.671
 11 
2.039
 21 
0.677
 0 
LINE
 8 
0
 62 
 7 
 10 
2.039
 20 
0.677
 11 
2.039
 21 
0.639
 0 
LINE
 8 
0
 62 
 7 
 10 
2.032
 20 
0.639
 11 
2.045
 21 
0.639
 0 
LINE
 8 
0
 62 
 7 
 10 
2.07
 20 
0.658
 11 
2.064
 21 
0.664
 0 
LINE
 8 
0
 62 
 7 
 10 
2.064
 20 
0.664
 11 
2.064
 21 
0.671
 0 
LINE
 8 
0
 62 
 7 
 10 
2.064
 20 
0.671
 11 
2.07
 21 
0.677
 0 
LINE
 8 
0
 62 
 7 
 10 
2.07
 20 
0.677
 11 
2.083
 21 
0.677
 0 
LINE
 8 
0
 62 
 7 
 10 
2.083
 20 
0.677
 11 
2.089
 21 
0.671
 0 
LINE
 8 
0
 62 
 7 
 10 
2.089
 20 
0.671
 11 
2.089
 21 
0.664
 0 
LINE
 8 
0
 62 
 7 
 10 
2.089
 20 
0.664
 11 
2.083
 21 
0.658
 0 
LINE
 8 
0
 62 
 7 
 10 
2.083
 20 
0.658
 11 
2.07
 21 
0.658
 0 
LINE
 8 
0
 62 
 7 
 10 
2.07
 20 
0.658
 11 
2.064
 21 
0.652
 0 
LINE
 8 
0
 62 
 7 
 10 
2.064
 20 
0.652
 11 
2.064
 21 
0.645
 0 
LINE
 8 
0
 62 
 7 
 10 
2.064
 20 
0.645
 11 
2.07
 21 
0.639
 0 
LINE
 8 
0
 62 
 7 
 10 
2.07
 20 
0.639
 11 
2.083
 21 
0.639
 0 
LINE
 8 
0
 62 
 7 
 10 
2.083
 20 
0.639
 11 
2.089
 21 
0.645
 0 
LINE
 8 
0
 62 
 7 
 10 
2.089
 20 
0.645
 11 
2.089
 21 
0.652
 0 
LINE
 8 
0
 62 
 7 
 10 
2.089
 20 
0.652
 11 
2.083
 21 
0.658
 0 
LINE
 8 
0
 62 
 7 
 10 
1.97
 20 
0.625
 11 
1.873
 21 
0.625
 0 
LINE
 8 
0
 62 
 7 
 10 
1.873
 20 
0.575
 11 
1.873
 21 
0.624
 0 
LINE
 8 
0
 62 
 7 
 10 
1.874
 20 
0.575
 11 
1.97
 21 
0.575
 0 
LINE
 8 
0
 62 
 7 
 10 
1.972
 20 
0.575
 11 
1.972
 21 
0.625
 0 
LINE
 8 
0
 62 
 7 
 10 
1.99
 20 
0.58
 11 
1.99
 21 
0.618
 0 
LINE
 8 
0
 62 
 7 
 10 
1.99
 20 
0.618
 11 
2.009
 21 
0.618
 0 
LINE
 8 
0
 62 
 7 
 10 
2.009
 20 
0.618
 11 
2.015
 21 
0.612
 0 
LINE
 8 
0
 62 
 7 
 10 
2.015
 20 
0.612
 11 
2.015
 21 
0.605
 0 
LINE
 8 
0
 62 
 7 
 10 
2.015
 20 
0.605
 11 
2.009
 21 
0.599
 0 
LINE
 8 
0
 62 
 7 
 10 
2.009
 20 
0.599
 11 
1.99
 21 
0.599
 0 
LINE
 8 
0
 62 
 7 
 10 
1.996
 20 
0.599
 11 
2.015
 21 
0.58
 0 
LINE
 8 
0
 62 
 7 
 10 
2.034
 20 
0.612
 11 
2.041
 21 
0.618
 0 
LINE
 8 
0
 62 
 7 
 10 
2.041
 20 
0.618
 11 
2.041
 21 
0.58
 0 
LINE
 8 
0
 62 
 7 
 10 
2.034
 20 
0.58
 11 
2.047
 21 
0.58
 0 
LINE
 8 
0
 62 
 7 
 10 
2.091
 20 
0.605
 11 
2.085
 21 
0.599
 0 
LINE
 8 
0
 62 
 7 
 10 
2.085
 20 
0.599
 11 
2.072
 21 
0.599
 0 
LINE
 8 
0
 62 
 7 
 10 
2.072
 20 
0.599
 11 
2.066
 21 
0.605
 0 
LINE
 8 
0
 62 
 7 
 10 
2.066
 20 
0.605
 11 
2.066
 21 
0.612
 0 
LINE
 8 
0
 62 
 7 
 10 
2.066
 20 
0.612
 11 
2.072
 21 
0.618
 0 
LINE
 8 
0
 62 
 7 
 10 
2.072
 20 
0.618
 11 
2.085
 21 
0.618
 0 
LINE
 8 
0
 62 
 7 
 10 
2.085
 20 
0.618
 11 
2.091
 21 
0.612
 0 
LINE
 8 
0
 62 
 7 
 10 
2.091
 20 
0.612
 11 
2.091
 21 
0.593
 0 
LINE
 8 
0
 62 
 7 
 10 
2.091
 20 
0.593
 11 
2.079
 21 
0.58
 0 
LINE
 8 
0
 62 
 7 
 10 
2.079
 20 
0.58
 11 
2.072
 21 
0.58
 0 
LINE
 8 
0
 62 
 7 
 10 
2.47
 20 
0.448
 11 
2.519
 21 
0.448
 0 
LINE
 8 
0
 62 
 7 
 10 
2.47
 20 
0.447
 11 
2.47
 21 
0.351
 0 
LINE
 8 
0
 62 
 7 
 10 
2.47
 20 
0.349
 11 
2.52
 21 
0.349
 0 
LINE
 8 
0
 62 
 7 
 10 
2.42
 20 
0.351
 11 
2.42
 21 
0.448
 0 
LINE
 8 
0
 62 
 7 
 10 
2.37
 20 
0.448
 11 
2.419
 21 
0.448
 0 
LINE
 8 
0
 62 
 7 
 10 
2.37
 20 
0.447
 11 
2.37
 21 
0.351
 0 
LINE
 8 
0
 62 
 7 
 10 
2.37
 20 
0.349
 11 
2.42
 21 
0.349
 0 
LINE
 8 
0
 62 
 7 
 10 
2.32
 20 
0.351
 11 
2.32
 21 
0.448
 0 
LINE
 8 
0
 62 
 7 
 10 
2.27
 20 
0.448
 11 
2.319
 21 
0.448
 0 
LINE
 8 
0
 62 
 7 
 10 
2.27
 20 
0.447
 11 
2.27
 21 
0.351
 0 
LINE
 8 
0
 62 
 7 
 10 
2.27
 20 
0.349
 11 
2.32
 21 
0.349
 0 
LINE
 8 
0
 62 
 7 
 10 
2.22
 20 
0.351
 11 
2.22
 21 
0.448
 0 
LINE
 8 
0
 62 
 7 
 10 
2.17
 20 
0.448
 11 
2.219
 21 
0.448
 0 
LINE
 8 
0
 62 
 7 
 10 
2.17
 20 
0.447
 11 
2.17
 21 
0.351
 0 
LINE
 8 
0
 62 
 7 
 10 
1.311
 20 
0.808
 11 
1.311
 21 
0.833
 0 
LINE
 8 
0
 62 
 7 
 10 
1.311
 20 
0.833
 11 
1.324
 21 
0.846
 0 
LINE
 8 
0
 62 
 7 
 10 
1.324
 20 
0.846
 11 
1.336
 21 
0.833
 0 
LINE
 8 
0
 62 
 7 
 10 
1.336
 20 
0.833
 11 
1.336
 21 
0.808
 0 
LINE
 8 
0
 62 
 7 
 10 
1.311
 20 
0.821
 11 
1.336
 21 
0.821
 0 
LINE
 8 
0
 62 
 7 
 10 
1.374
 20 
0.84
 11 
1.368
 21 
0.846
 0 
LINE
 8 
0
 62 
 7 
 10 
1.368
 20 
0.846
 11 
1.355
 21 
0.846
 0 
LINE
 8 
0
 62 
 7 
 10 
1.355
 20 
0.846
 11 
1.349
 21 
0.84
 0 
LINE
 8 
0
 62 
 7 
 10 
1.349
 20 
0.84
 11 
1.349
 21 
0.833
 0 
LINE
 8 
0
 62 
 7 
 10 
1.349
 20 
0.833
 11 
1.355
 21 
0.827
 0 
LINE
 8 
0
 62 
 7 
 10 
1.355
 20 
0.827
 11 
1.368
 21 
0.827
 0 
LINE
 8 
0
 62 
 7 
 10 
1.368
 20 
0.827
 11 
1.374
 21 
0.821
 0 
LINE
 8 
0
 62 
 7 
 10 
1.374
 20 
0.821
 11 
1.374
 21 
0.814
 0 
LINE
 8 
0
 62 
 7 
 10 
1.374
 20 
0.814
 11 
1.368
 21 
0.808
 0 
LINE
 8 
0
 62 
 7 
 10 
1.368
 20 
0.808
 11 
1.355
 21 
0.808
 0 
LINE
 8 
0
 62 
 7 
 10 
1.355
 20 
0.808
 11 
1.349
 21 
0.814
 0 
LINE
 8 
0
 62 
 7 
 10 
1.387
 20 
0.808
 11 
1.387
 21 
0.846
 0 
LINE
 8 
0
 62 
 7 
 10 
1.387
 20 
0.846
 11 
1.406
 21 
0.846
 0 
LINE
 8 
0
 62 
 7 
 10 
1.406
 20 
0.846
 11 
1.412
 21 
0.84
 0 
LINE
 8 
0
 62 
 7 
 10 
1.412
 20 
0.84
 11 
1.412
 21 
0.833
 0 
LINE
 8 
0
 62 
 7 
 10 
1.412
 20 
0.833
 11 
1.406
 21 
0.827
 0 
LINE
 8 
0
 62 
 7 
 10 
1.406
 20 
0.827
 11 
1.387
 21 
0.827
 0 
LINE
 8 
0
 62 
 7 
 10 
1.425
 20 
0.827
 11 
1.45
 21 
0.827
 0 
LINE
 8 
0
 62 
 7 
 10 
1.463
 20 
0.846
 11 
1.482
 21 
0.846
 0 
LINE
 8 
0
 62 
 7 
 10 
1.482
 20 
0.846
 11 
1.488
 21 
0.84
 0 
LINE
 8 
0
 62 
 7 
 10 
1.488
 20 
0.84
 11 
1.488
 21 
0.814
 0 
LINE
 8 
0
 62 
 7 
 10 
1.488
 20 
0.814
 11 
1.482
 21 
0.808
 0 
LINE
 8 
0
 62 
 7 
 10 
1.482
 20 
0.808
 11 
1.463
 21 
0.808
 0 
LINE
 8 
0
 62 
 7 
 10 
1.469
 20 
0.846
 11 
1.469
 21 
0.808
 0 
LINE
 8 
0
 62 
 7 
 10 
1.526
 20 
0.84
 11 
1.52
 21 
0.846
 0 
LINE
 8 
0
 62 
 7 
 10 
1.52
 20 
0.846
 11 
1.507
 21 
0.846
 0 
LINE
 8 
0
 62 
 7 
 10 
1.507
 20 
0.846
 11 
1.501
 21 
0.84
 0 
LINE
 8 
0
 62 
 7 
 10 
1.501
 20 
0.84
 11 
1.501
 21 
0.814
 0 
LINE
 8 
0
 62 
 7 
 10 
1.501
 20 
0.814
 11 
1.507
 21 
0.808
 0 
LINE
 8 
0
 62 
 7 
 10 
1.507
 20 
0.808
 11 
1.52
 21 
0.808
 0 
LINE
 8 
0
 62 
 7 
 10 
1.52
 20 
0.808
 11 
1.526
 21 
0.814
 0 
LINE
 8 
0
 62 
 7 
 10 
1.539
 20 
0.846
 11 
1.558
 21 
0.846
 0 
LINE
 8 
0
 62 
 7 
 10 
1.558
 20 
0.846
 11 
1.564
 21 
0.84
 0 
LINE
 8 
0
 62 
 7 
 10 
1.564
 20 
0.84
 11 
1.564
 21 
0.814
 0 
LINE
 8 
0
 62 
 7 
 10 
1.564
 20 
0.814
 11 
1.558
 21 
0.808
 0 
LINE
 8 
0
 62 
 7 
 10 
1.558
 20 
0.808
 11 
1.539
 21 
0.808
 0 
LINE
 8 
0
 62 
 7 
 10 
1.545
 20 
0.846
 11 
1.545
 21 
0.808
 0 
LINE
 8 
0
 62 
 7 
 10 
1.577
 20 
0.827
 11 
1.602
 21 
0.827
 0 
LINE
 8 
0
 62 
 7 
 10 
1.615
 20 
0.814
 11 
1.615
 21 
0.84
 0 
LINE
 8 
0
 62 
 7 
 10 
1.615
 20 
0.84
 11 
1.621
 21 
0.846
 0 
LINE
 8 
0
 62 
 7 
 10 
1.621
 20 
0.846
 11 
1.634
 21 
0.846
 0 
LINE
 8 
0
 62 
 7 
 10 
1.634
 20 
0.846
 11 
1.64
 21 
0.84
 0 
LINE
 8 
0
 62 
 7 
 10 
1.64
 20 
0.84
 11 
1.64
 21 
0.814
 0 
LINE
 8 
0
 62 
 7 
 10 
1.64
 20 
0.814
 11 
1.634
 21 
0.808
 0 
LINE
 8 
0
 62 
 7 
 10 
1.634
 20 
0.808
 11 
1.621
 21 
0.808
 0 
LINE
 8 
0
 62 
 7 
 10 
1.621
 20 
0.808
 11 
1.615
 21 
0.814
 0 
LINE
 8 
0
 62 
 7 
 10 
1.615
 20 
0.814
 11 
1.64
 21 
0.84
 0 
LINE
 8 
0
 62 
 7 
 10 
1.653
 20 
0.814
 11 
1.653
 21 
0.84
 0 
LINE
 8 
0
 62 
 7 
 10 
1.653
 20 
0.84
 11 
1.659
 21 
0.846
 0 
LINE
 8 
0
 62 
 7 
 10 
1.659
 20 
0.846
 11 
1.672
 21 
0.846
 0 
LINE
 8 
0
 62 
 7 
 10 
1.672
 20 
0.846
 11 
1.678
 21 
0.84
 0 
LINE
 8 
0
 62 
 7 
 10 
1.678
 20 
0.84
 11 
1.678
 21 
0.814
 0 
LINE
 8 
0
 62 
 7 
 10 
1.678
 20 
0.814
 11 
1.672
 21 
0.808
 0 
LINE
 8 
0
 62 
 7 
 10 
1.672
 20 
0.808
 11 
1.659
 21 
0.808
 0 
LINE
 8 
0
 62 
 7 
 10 
1.659
 20 
0.808
 11 
1.653
 21 
0.814
 0 
LINE
 8 
0
 62 
 7 
 10 
1.653
 20 
0.814
 11 
1.678
 21 
0.84
 0 
LINE
 8 
0
 62 
 7 
 10 
1.767
 20 
0.808
 11 
1.767
 21 
0.846
 0 
LINE
 8 
0
 62 
 7 
 10 
1.767
 20 
0.846
 11 
1.786
 21 
0.846
 0 
LINE
 8 
0
 62 
 7 
 10 
1.786
 20 
0.846
 11 
1.792
 21 
0.84
 0 
LINE
 8 
0
 62 
 7 
 10 
1.792
 20 
0.84
 11 
1.792
 21 
0.833
 0 
LINE
 8 
0
 62 
 7 
 10 
1.792
 20 
0.833
 11 
1.786
 21 
0.827
 0 
LINE
 8 
0
 62 
 7 
 10 
1.786
 20 
0.827
 11 
1.767
 21 
0.827
 0 
LINE
 8 
0
 62 
 7 
 10 
1.773
 20 
0.827
 11 
1.792
 21 
0.808
 0 
LINE
 8 
0
 62 
 7 
 10 
1.83
 20 
0.846
 11 
1.805
 21 
0.846
 0 
LINE
 8 
0
 62 
 7 
 10 
1.805
 20 
0.846
 11 
1.805
 21 
0.808
 0 
LINE
 8 
0
 62 
 7 
 10 
1.805
 20 
0.808
 11 
1.83
 21 
0.808
 0 
LINE
 8 
0
 62 
 7 
 10 
1.805
 20 
0.827
 11 
1.824
 21 
0.827
 0 
LINE
 8 
0
 62 
 7 
 10 
1.843
 20 
0.846
 11 
1.843
 21 
0.827
 0 
LINE
 8 
0
 62 
 7 
 10 
1.843
 20 
0.827
 11 
1.856
 21 
0.814
 0 
LINE
 8 
0
 62 
 7 
 10 
1.856
 20 
0.814
 11 
1.868
 21 
0.827
 0 
LINE
 8 
0
 62 
 7 
 10 
1.868
 20 
0.827
 11 
1.868
 21 
0.846
 0 
LINE
 8 
0
 62 
 7 
 10 
1.856
 20 
0.814
 11 
1.856
 21 
0.808
 0 
LINE
 8 
0
 62 
 7 
 10 
1.919
 20 
0.808
 11 
1.919
 21 
0.833
 0 
LINE
 8 
0
 62 
 7 
 10 
1.919
 20 
0.833
 11 
1.932
 21 
0.846
 0 
LINE
 8 
0
 62 
 7 
 10 
1.932
 20 
0.846
 11 
1.944
 21 
0.833
 0 
LINE
 8 
0
 62 
 7 
 10 
1.944
 20 
0.833
 11 
1.944
 21 
0.808
 0 
LINE
 8 
0
 62 
 7 
 10 
1.919
 20 
0.821
 11 
1.944
 21 
0.821
 0 
LINE
 8 
0
 62 
 7 
 10 
1.97
 20 
0.808
 11 
1.963
 21 
0.808
 0 
LINE
 8 
0
 62 
 7 
 10 
1.963
 20 
0.808
 11 
1.963
 21 
0.814
 0 
LINE
 8 
0
 62 
 7 
 10 
1.963
 20 
0.814
 11 
1.97
 21 
0.814
 0 
LINE
 8 
0
 62 
 7 
 10 
1.97
 20 
0.814
 11 
1.97
 21 
0.808
 0 
LINE
 8 
0
 62 
 7 
 10 
1.995
 20 
0.84
 11 
2.001
 21 
0.846
 0 
LINE
 8 
0
 62 
 7 
 10 
2.001
 20 
0.846
 11 
2.014
 21 
0.846
 0 
LINE
 8 
0
 62 
 7 
 10 
2.014
 20 
0.846
 11 
2.02
 21 
0.84
 0 
LINE
 8 
0
 62 
 7 
 10 
2.02
 20 
0.84
 11 
2.02
 21 
0.833
 0 
LINE
 8 
0
 62 
 7 
 10 
2.02
 20 
0.833
 11 
2.014
 21 
0.827
 0 
LINE
 8 
0
 62 
 7 
 10 
2.014
 20 
0.827
 11 
2.001
 21 
0.827
 0 
LINE
 8 
0
 62 
 7 
 10 
2.001
 20 
0.827
 11 
1.995
 21 
0.821
 0 
LINE
 8 
0
 62 
 7 
 10 
1.995
 20 
0.821
 11 
1.995
 21 
0.808
 0 
LINE
 8 
0
 62 
 7 
 10 
1.995
 20 
0.808
 11 
2.02
 21 
0.808
 0 
LINE
 8 
0
 62 
 7 
 10 
2.17
 20 
0.349
 11 
2.22
 21 
0.349
 0 
LINE
 8 
0
 62 
 7 
 10 
2.696
 20 
0.444
 11 
2.696
 21 
0.347
 0 
LINE
 8 
0
 62 
 7 
 10 
2.746
 20 
0.347
 11 
2.697
 21 
0.347
 0 
LINE
 8 
0
 62 
 7 
 10 
2.746
 20 
0.348
 11 
2.746
 21 
0.444
 0 
LINE
 8 
0
 62 
 7 
 10 
2.746
 20 
0.446
 11 
2.696
 21 
0.446
 0 
LINE
 8 
0
 62 
 7 
 10 
2.688
 20 
0.462
 11 
2.688
 21 
0.5
 0 
LINE
 8 
0
 62 
 7 
 10 
2.688
 20 
0.5
 11 
2.707
 21 
0.5
 0 
LINE
 8 
0
 62 
 7 
 10 
2.707
 20 
0.5
 11 
2.713
 21 
0.494
 0 
LINE
 8 
0
 62 
 7 
 10 
2.713
 20 
0.494
 11 
2.713
 21 
0.487
 0 
LINE
 8 
0
 62 
 7 
 10 
2.713
 20 
0.487
 11 
2.707
 21 
0.481
 0 
LINE
 8 
0
 62 
 7 
 10 
2.707
 20 
0.481
 11 
2.688
 21 
0.481
 0 
LINE
 8 
0
 62 
 7 
 10 
2.694
 20 
0.481
 11 
2.713
 21 
0.462
 0 
LINE
 8 
0
 62 
 7 
 10 
2.726
 20 
0.494
 11 
2.732
 21 
0.5
 0 
LINE
 8 
0
 62 
 7 
 10 
2.732
 20 
0.5
 11 
2.745
 21 
0.5
 0 
LINE
 8 
0
 62 
 7 
 10 
2.745
 20 
0.5
 11 
2.751
 21 
0.494
 0 
LINE
 8 
0
 62 
 7 
 10 
2.751
 20 
0.494
 11 
2.751
 21 
0.487
 0 
LINE
 8 
0
 62 
 7 
 10 
2.751
 20 
0.487
 11 
2.745
 21 
0.481
 0 
LINE
 8 
0
 62 
 7 
 10 
2.745
 20 
0.481
 11 
2.732
 21 
0.481
 0 
LINE
 8 
0
 62 
 7 
 10 
2.732
 20 
0.481
 11 
2.726
 21 
0.475
 0 
LINE
 8 
0
 62 
 7 
 10 
2.726
 20 
0.475
 11 
2.726
 21 
0.462
 0 
LINE
 8 
0
 62 
 7 
 10 
2.726
 20 
0.462
 11 
2.751
 21 
0.462
 0 
LINE
 8 
0
 62 
 7 
 10 
2.789
 20 
0.5
 11 
2.764
 21 
0.5
 0 
LINE
 8 
0
 62 
 7 
 10 
2.764
 20 
0.5
 11 
2.764
 21 
0.487
 0 
LINE
 8 
0
 62 
 7 
 10 
2.764
 20 
0.487
 11 
2.783
 21 
0.487
 0 
LINE
 8 
0
 62 
 7 
 10 
2.783
 20 
0.487
 11 
2.789
 21 
0.481
 0 
LINE
 8 
0
 62 
 7 
 10 
2.789
 20 
0.481
 11 
2.789
 21 
0.468
 0 
LINE
 8 
0
 62 
 7 
 10 
2.789
 20 
0.468
 11 
2.783
 21 
0.462
 0 
LINE
 8 
0
 62 
 7 
 10 
2.783
 20 
0.462
 11 
2.77
 21 
0.462
 0 
LINE
 8 
0
 62 
 7 
 10 
2.77
 20 
0.462
 11 
2.764
 21 
0.468
 0 
LINE
 8 
0
 62 
 7 
 10 
0.258
 20 
0.619
 11 
0.161
 21 
0.619
 0 
LINE
 8 
0
 62 
 7 
 10 
0.161
 20 
0.569
 11 
0.161
 21 
0.618
 0 
LINE
 8 
0
 62 
 7 
 10 
0.162
 20 
0.569
 11 
0.258
 21 
0.569
 0 
LINE
 8 
0
 62 
 7 
 10 
0.26
 20 
0.569
 11 
0.26
 21 
0.619
 0 
LINE
 8 
0
 62 
 7 
 10 
0.014
 20 
0.58
 11 
0.014
 21 
0.618
 0 
LINE
 8 
0
 62 
 7 
 10 
0.014
 20 
0.618
 11 
0.033
 21 
0.618
 0 
LINE
 8 
0
 62 
 7 
 10 
0.033
 20 
0.618
 11 
0.039
 21 
0.612
 0 
LINE
 8 
0
 62 
 7 
 10 
0.039
 20 
0.612
 11 
0.039
 21 
0.605
 0 
LINE
 8 
0
 62 
 7 
 10 
0.039
 20 
0.605
 11 
0.033
 21 
0.599
 0 
LINE
 8 
0
 62 
 7 
 10 
0.033
 20 
0.599
 11 
0.014
 21 
0.599
 0 
LINE
 8 
0
 62 
 7 
 10 
0.02
 20 
0.599
 11 
0.039
 21 
0.58
 0 
LINE
 8 
0
 62 
 7 
 10 
0.052
 20 
0.612
 11 
0.058
 21 
0.618
 0 
LINE
 8 
0
 62 
 7 
 10 
0.058
 20 
0.618
 11 
0.071
 21 
0.618
 0 
LINE
 8 
0
 62 
 7 
 10 
0.071
 20 
0.618
 11 
0.077
 21 
0.612
 0 
LINE
 8 
0
 62 
 7 
 10 
0.077
 20 
0.612
 11 
0.077
 21 
0.605
 0 
LINE
 8 
0
 62 
 7 
 10 
0.077
 20 
0.605
 11 
0.071
 21 
0.599
 0 
LINE
 8 
0
 62 
 7 
 10 
0.071
 20 
0.599
 11 
0.058
 21 
0.599
 0 
LINE
 8 
0
 62 
 7 
 10 
0.058
 20 
0.599
 11 
0.052
 21 
0.593
 0 
LINE
 8 
0
 62 
 7 
 10 
0.052
 20 
0.593
 11 
0.052
 21 
0.58
 0 
LINE
 8 
0
 62 
 7 
 10 
0.052
 20 
0.58
 11 
0.077
 21 
0.58
 0 
LINE
 8 
0
 62 
 7 
 10 
0.096
 20 
0.599
 11 
0.09
 21 
0.605
 0 
LINE
 8 
0
 62 
 7 
 10 
0.09
 20 
0.605
 11 
0.09
 21 
0.612
 0 
LINE
 8 
0
 62 
 7 
 10 
0.09
 20 
0.612
 11 
0.096
 21 
0.618
 0 
LINE
 8 
0
 62 
 7 
 10 
0.096
 20 
0.618
 11 
0.109
 21 
0.618
 0 
LINE
 8 
0
 62 
 7 
 10 
0.109
 20 
0.618
 11 
0.115
 21 
0.612
 0 
LINE
 8 
0
 62 
 7 
 10 
0.115
 20 
0.612
 11 
0.115
 21 
0.605
 0 
LINE
 8 
0
 62 
 7 
 10 
0.115
 20 
0.605
 11 
0.109
 21 
0.599
 0 
LINE
 8 
0
 62 
 7 
 10 
0.109
 20 
0.599
 11 
0.096
 21 
0.599
 0 
LINE
 8 
0
 62 
 7 
 10 
0.096
 20 
0.599
 11 
0.09
 21 
0.593
 0 
LINE
 8 
0
 62 
 7 
 10 
0.09
 20 
0.593
 11 
0.09
 21 
0.586
 0 
LINE
 8 
0
 62 
 7 
 10 
0.09
 20 
0.586
 11 
0.096
 21 
0.58
 0 
LINE
 8 
0
 62 
 7 
 10 
0.096
 20 
0.58
 11 
0.109
 21 
0.58
 0 
LINE
 8 
0
 62 
 7 
 10 
0.109
 20 
0.58
 11 
0.115
 21 
0.586
 0 
LINE
 8 
0
 62 
 7 
 10 
0.115
 20 
0.586
 11 
0.115
 21 
0.593
 0 
LINE
 8 
0
 62 
 7 
 10 
0.115
 20 
0.593
 11 
0.109
 21 
0.599
 0 
LINE
 8 
0
 62 
 7 
 10 
0.256
 20 
0.344
 11 
0.159
 21 
0.344
 0 
LINE
 8 
0
 62 
 7 
 10 
0.159
 20 
0.294
 11 
0.159
 21 
0.343
 0 
LINE
 8 
0
 62 
 7 
 10 
0.16
 20 
0.294
 11 
0.256
 21 
0.294
 0 
LINE
 8 
0
 62 
 7 
 10 
0.258
 20 
0.294
 11 
0.258
 21 
0.344
 0 
LINE
 8 
0
 62 
 7 
 10 
0.019
 20 
0.295
 11 
0.019
 21 
0.333
 0 
LINE
 8 
0
 62 
 7 
 10 
0.019
 20 
0.333
 11 
0.038
 21 
0.333
 0 
LINE
 8 
0
 62 
 7 
 10 
0.038
 20 
0.333
 11 
0.044
 21 
0.327
 0 
LINE
 8 
0
 62 
 7 
 10 
0.044
 20 
0.327
 11 
0.044
 21 
0.32
 0 
LINE
 8 
0
 62 
 7 
 10 
0.044
 20 
0.32
 11 
0.038
 21 
0.314
 0 
LINE
 8 
0
 62 
 7 
 10 
0.038
 20 
0.314
 11 
0.019
 21 
0.314
 0 
LINE
 8 
0
 62 
 7 
 10 
0.025
 20 
0.314
 11 
0.044
 21 
0.295
 0 
LINE
 8 
0
 62 
 7 
 10 
0.057
 20 
0.327
 11 
0.063
 21 
0.333
 0 
LINE
 8 
0
 62 
 7 
 10 
0.063
 20 
0.333
 11 
0.076
 21 
0.333
 0 
LINE
 8 
0
 62 
 7 
 10 
0.076
 20 
0.333
 11 
0.082
 21 
0.327
 0 
LINE
 8 
0
 62 
 7 
 10 
0.082
 20 
0.327
 11 
0.082
 21 
0.32
 0 
LINE
 8 
0
 62 
 7 
 10 
0.082
 20 
0.32
 11 
0.076
 21 
0.314
 0 
LINE
 8 
0
 62 
 7 
 10 
0.076
 20 
0.314
 11 
0.063
 21 
0.314
 0 
LINE
 8 
0
 62 
 7 
 10 
0.063
 20 
0.314
 11 
0.057
 21 
0.308
 0 
LINE
 8 
0
 62 
 7 
 10 
0.057
 20 
0.308
 11 
0.057
 21 
0.295
 0 
LINE
 8 
0
 62 
 7 
 10 
0.057
 20 
0.295
 11 
0.082
 21 
0.295
 0 
LINE
 8 
0
 62 
 7 
 10 
0.095
 20 
0.327
 11 
0.095
 21 
0.333
 0 
LINE
 8 
0
 62 
 7 
 10 
0.095
 20 
0.333
 11 
0.12
 21 
0.333
 0 
LINE
 8 
0
 62 
 7 
 10 
0.12
 20 
0.333
 11 
0.12
 21 
0.327
 0 
LINE
 8 
0
 62 
 7 
 10 
0.12
 20 
0.327
 11 
0.101
 21 
0.308
 0 
LINE
 8 
0
 62 
 7 
 10 
0.101
 20 
0.308
 11 
0.101
 21 
0.295
 0 
LINE
 8 
0
 62 
 7 
 10 
0.16
 20 
0.452
 11 
0.102
 21 
0.452
 0 
LINE
 8 
0
 62 
 7 
 10 
0.102
 20 
0.452
 11 
0.102
 21 
0.362
 0 
LINE
 8 
0
 62 
 7 
 10 
0.931
 20 
0.723
 11 
0.931
 21 
0.773
 0 
LINE
 8 
0
 62 
 7 
 10 
0.102
 20 
0.362
 11 
0.16
 21 
0.362
 0 
LINE
 8 
0
 62 
 7 
 10 
0.2
 20 
0.452
 11 
0.258
 21 
0.452
 0 
LINE
 8 
0
 62 
 7 
 10 
0.258
 20 
0.452
 11 
0.258
 21 
0.362
 0 
LINE
 8 
0
 62 
 7 
 10 
0.258
 20 
0.362
 11 
0.2
 21 
0.362
 0 
LINE
 8 
0
 62 
 7 
 10 
0.092
 20 
0.357
 11 
0.092
 21 
0.457
 0 
LINE
 8 
0
 62 
 7 
 10 
0.019
 20 
0.374
 11 
0.019
 21 
0.393
 0 
LINE
 8 
0
 62 
 7 
 10 
0.019
 20 
0.393
 11 
0.025
 21 
0.399
 0 
LINE
 8 
0
 62 
 7 
 10 
0.025
 20 
0.399
 11 
0.051
 21 
0.399
 0 
LINE
 8 
0
 62 
 7 
 10 
0.051
 20 
0.399
 11 
0.057
 21 
0.393
 0 
LINE
 8 
0
 62 
 7 
 10 
0.057
 20 
0.393
 11 
0.057
 21 
0.374
 0 
LINE
 8 
0
 62 
 7 
 10 
0.019
 20 
0.38
 11 
0.057
 21 
0.38
 0 
LINE
 8 
0
 62 
 7 
 10 
0.025
 20 
0.418
 11 
0.019
 21 
0.425
 0 
LINE
 8 
0
 62 
 7 
 10 
0.019
 20 
0.425
 11 
0.057
 21 
0.425
 0 
LINE
 8 
0
 62 
 7 
 10 
0.057
 20 
0.418
 11 
0.057
 21 
0.431
 0 
LINE
 8 
0
 62 
 7 
 10 
0.16
 20 
0.555
 11 
0.102
 21 
0.555
 0 
LINE
 8 
0
 62 
 7 
 10 
0.102
 20 
0.555
 11 
0.102
 21 
0.465
 0 
LINE
 8 
0
 62 
 7 
 10 
0.102
 20 
0.465
 11 
0.16
 21 
0.465
 0 
LINE
 8 
0
 62 
 7 
 10 
0.2
 20 
0.555
 11 
0.258
 21 
0.555
 0 
LINE
 8 
0
 62 
 7 
 10 
0.258
 20 
0.555
 11 
0.258
 21 
0.465
 0 
LINE
 8 
0
 62 
 7 
 10 
0.258
 20 
0.465
 11 
0.2
 21 
0.465
 0 
LINE
 8 
0
 62 
 7 
 10 
0.931
 20 
0.773
 11 
0.952
 21 
0.773
 0 
LINE
 8 
0
 62 
 7 
 10 
0.092
 20 
0.46
 11 
0.092
 21 
0.56
 0 
LINE
 8 
0
 62 
 7 
 10 
1.042
 20 
0.723
 11 
1.042
 21 
0.773
 0 
LINE
 8 
0
 62 
 7 
 10 
0.98
 20 
0.675
 11 
0.993
 21 
0.675
 0 
LINE
 8 
0
 62 
 7 
 10 
1.021
 20 
0.773
 11 
1.042
 21 
0.773
 0 
LINE
 8 
0
 62 
 7 
 10 
0.883
 20 
0.749
 11 
0.877
 21 
0.755
 0 
LINE
 8 
0
 62 
 7 
 10 
0.877
 20 
0.755
 11 
0.864
 21 
0.755
 0 
LINE
 8 
0
 62 
 7 
 10 
0.864
 20 
0.755
 11 
0.858
 21 
0.749
 0 
LINE
 8 
0
 62 
 7 
 10 
0.858
 20 
0.749
 11 
0.858
 21 
0.723
 0 
LINE
 8 
0
 62 
 7 
 10 
0.858
 20 
0.723
 11 
0.864
 21 
0.717
 0 
LINE
 8 
0
 62 
 7 
 10 
0.864
 20 
0.717
 11 
0.871
 21 
0.717
 0 
LINE
 8 
0
 62 
 7 
 10 
0.871
 20 
0.717
 11 
0.883
 21 
0.73
 0 
LINE
 8 
0
 62 
 7 
 10 
0.883
 20 
0.73
 11 
0.883
 21 
0.749
 0 
LINE
 8 
0
 62 
 7 
 10 
0.871
 20 
0.73
 11 
0.883
 21 
0.717
 0 
LINE
 8 
0
 62 
 7 
 10 
0.902
 20 
0.749
 11 
0.909
 21 
0.755
 0 
LINE
 8 
0
 62 
 7 
 10 
0.909
 20 
0.755
 11 
0.909
 21 
0.717
 0 
LINE
 8 
0
 62 
 7 
 10 
0.902
 20 
0.717
 11 
0.915
 21 
0.717
 0 
LINE
 8 
0
 62 
 7 
 10 
0.02
 20 
0.482
 11 
0.02
 21 
0.501
 0 
LINE
 8 
0
 62 
 7 
 10 
0.02
 20 
0.501
 11 
0.026
 21 
0.507
 0 
LINE
 8 
0
 62 
 7 
 10 
0.026
 20 
0.507
 11 
0.052
 21 
0.507
 0 
LINE
 8 
0
 62 
 7 
 10 
0.052
 20 
0.507
 11 
0.058
 21 
0.501
 0 
LINE
 8 
0
 62 
 7 
 10 
0.058
 20 
0.501
 11 
0.058
 21 
0.482
 0 
LINE
 8 
0
 62 
 7 
 10 
0.02
 20 
0.488
 11 
0.058
 21 
0.488
 0 
LINE
 8 
0
 62 
 7 
 10 
0.026
 20 
0.52
 11 
0.02
 21 
0.526
 0 
LINE
 8 
0
 62 
 7 
 10 
0.02
 20 
0.526
 11 
0.02
 21 
0.539
 0 
LINE
 8 
0
 62 
 7 
 10 
0.02
 20 
0.539
 11 
0.026
 21 
0.545
 0 
LINE
 8 
0
 62 
 7 
 10 
0.026
 20 
0.545
 11 
0.033
 21 
0.545
 0 
LINE
 8 
0
 62 
 7 
 10 
0.033
 20 
0.545
 11 
0.039
 21 
0.539
 0 
LINE
 8 
0
 62 
 7 
 10 
0.039
 20 
0.539
 11 
0.039
 21 
0.526
 0 
LINE
 8 
0
 62 
 7 
 10 
0.039
 20 
0.526
 11 
0.045
 21 
0.52
 0 
LINE
 8 
0
 62 
 7 
 10 
0.045
 20 
0.52
 11 
0.058
 21 
0.52
 0 
LINE
 8 
0
 62 
 7 
 10 
0.058
 20 
0.52
 11 
0.058
 21 
0.545
 0 
LINE
 8 
0
 62 
 7 
 10 
0.295
 20 
0.716
 11 
0.302
 21 
0.722
 0 
LINE
 8 
0
 62 
 7 
 10 
0.302
 20 
0.722
 11 
0.302
 21 
0.684
 0 
LINE
 8 
0
 62 
 7 
 10 
0.295
 20 
0.684
 11 
0.308
 21 
0.684
 0 
LINE
 8 
0
 62 
 7 
 10 
0.29
 20 
0.611
 11 
0.296
 21 
0.617
 0 
LINE
 8 
0
 62 
 7 
 10 
0.296
 20 
0.617
 11 
0.309
 21 
0.617
 0 
LINE
 8 
0
 62 
 7 
 10 
0.309
 20 
0.617
 11 
0.315
 21 
0.611
 0 
LINE
 8 
0
 62 
 7 
 10 
0.315
 20 
0.611
 11 
0.315
 21 
0.604
 0 
LINE
 8 
0
 62 
 7 
 10 
0.315
 20 
0.604
 11 
0.309
 21 
0.598
 0 
LINE
 8 
0
 62 
 7 
 10 
0.309
 20 
0.598
 11 
0.296
 21 
0.598
 0 
LINE
 8 
0
 62 
 7 
 10 
0.296
 20 
0.598
 11 
0.29
 21 
0.592
 0 
LINE
 8 
0
 62 
 7 
 10 
0.29
 20 
0.592
 11 
0.29
 21 
0.579
 0 
LINE
 8 
0
 62 
 7 
 10 
0.29
 20 
0.579
 11 
0.315
 21 
0.579
 0 
LINE
 8 
0
 62 
 7 
 10 
0.289
 20 
0.509
 11 
0.295
 21 
0.515
 0 
LINE
 8 
0
 62 
 7 
 10 
0.295
 20 
0.515
 11 
0.308
 21 
0.515
 0 
LINE
 8 
0
 62 
 7 
 10 
0.308
 20 
0.515
 11 
0.314
 21 
0.509
 0 
LINE
 8 
0
 62 
 7 
 10 
0.314
 20 
0.509
 11 
0.314
 21 
0.502
 0 
LINE
 8 
0
 62 
 7 
 10 
0.314
 20 
0.502
 11 
0.308
 21 
0.496
 0 
LINE
 8 
0
 62 
 7 
 10 
0.308
 20 
0.496
 11 
0.302
 21 
0.496
 0 
LINE
 8 
0
 62 
 7 
 10 
0.308
 20 
0.496
 11 
0.314
 21 
0.49
 0 
LINE
 8 
0
 62 
 7 
 10 
0.314
 20 
0.49
 11 
0.314
 21 
0.483
 0 
LINE
 8 
0
 62 
 7 
 10 
0.314
 20 
0.483
 11 
0.308
 21 
0.477
 0 
LINE
 8 
0
 62 
 7 
 10 
0.308
 20 
0.477
 11 
0.295
 21 
0.477
 0 
LINE
 8 
0
 62 
 7 
 10 
0.295
 20 
0.477
 11 
0.289
 21 
0.483
 0 
LINE
 8 
0
 62 
 7 
 10 
0.313
 20 
0.388
 11 
0.288
 21 
0.388
 0 
LINE
 8 
0
 62 
 7 
 10 
0.288
 20 
0.388
 11 
0.288
 21 
0.394
 0 
LINE
 8 
0
 62 
 7 
 10 
0.288
 20 
0.394
 11 
0.307
 21 
0.413
 0 
LINE
 8 
0
 62 
 7 
 10 
0.307
 20 
0.413
 11 
0.307
 21 
0.375
 0 
LINE
 8 
0
 62 
 7 
 10 
0.31
 20 
0.317
 11 
0.285
 21 
0.317
 0 
LINE
 8 
0
 62 
 7 
 10 
0.285
 20 
0.317
 11 
0.285
 21 
0.304
 0 
LINE
 8 
0
 62 
 7 
 10 
0.285
 20 
0.304
 11 
0.304
 21 
0.304
 0 
LINE
 8 
0
 62 
 7 
 10 
0.304
 20 
0.304
 11 
0.31
 21 
0.298
 0 
LINE
 8 
0
 62 
 7 
 10 
0.31
 20 
0.298
 11 
0.31
 21 
0.285
 0 
LINE
 8 
0
 62 
 7 
 10 
0.31
 20 
0.285
 11 
0.304
 21 
0.279
 0 
LINE
 8 
0
 62 
 7 
 10 
0.304
 20 
0.279
 11 
0.291
 21 
0.279
 0 
LINE
 8 
0
 62 
 7 
 10 
0.291
 20 
0.279
 11 
0.285
 21 
0.285
 0 
LINE
 8 
0
 62 
 7 
 10 
0.305
 20 
0.21
 11 
0.299
 21 
0.21
 0 
LINE
 8 
0
 62 
 7 
 10 
0.299
 20 
0.21
 11 
0.286
 21 
0.197
 0 
LINE
 8 
0
 62 
 7 
 10 
0.286
 20 
0.197
 11 
0.286
 21 
0.178
 0 
LINE
 8 
0
 62 
 7 
 10 
0.286
 20 
0.178
 11 
0.292
 21 
0.172
 0 
LINE
 8 
0
 62 
 7 
 10 
0.292
 20 
0.172
 11 
0.305
 21 
0.172
 0 
LINE
 8 
0
 62 
 7 
 10 
0.305
 20 
0.172
 11 
0.311
 21 
0.178
 0 
LINE
 8 
0
 62 
 7 
 10 
0.311
 20 
0.178
 11 
0.311
 21 
0.185
 0 
LINE
 8 
0
 62 
 7 
 10 
0.311
 20 
0.185
 11 
0.305
 21 
0.191
 0 
LINE
 8 
0
 62 
 7 
 10 
0.305
 20 
0.191
 11 
0.292
 21 
0.191
 0 
LINE
 8 
0
 62 
 7 
 10 
0.292
 20 
0.191
 11 
0.286
 21 
0.185
 0 
LINE
 8 
0
 62 
 7 
 10 
2.962
 20 
0.622
 11 
2.962
 21 
0.596
 0 
LINE
 8 
0
 62 
 7 
 10 
2.949
 20 
0.609
 11 
2.974
 21 
0.609
 0 
LINE
 8 
0
 62 
 7 
 10 
2.285
 20 
0.328
 11 
2.291
 21 
0.334
 0 
LINE
 8 
0
 62 
 7 
 10 
2.291
 20 
0.334
 11 
2.304
 21 
0.334
 0 
LINE
 8 
0
 62 
 7 
 10 
2.304
 20 
0.334
 11 
2.31
 21 
0.328
 0 
LINE
 8 
0
 62 
 7 
 10 
2.31
 20 
0.328
 11 
2.31
 21 
0.321
 0 
LINE
 8 
0
 62 
 7 
 10 
2.31
 20 
0.321
 11 
2.304
 21 
0.315
 0 
LINE
 8 
0
 62 
 7 
 10 
2.304
 20 
0.315
 11 
2.291
 21 
0.315
 0 
LINE
 8 
0
 62 
 7 
 10 
2.291
 20 
0.315
 11 
2.285
 21 
0.309
 0 
LINE
 8 
0
 62 
 7 
 10 
2.285
 20 
0.309
 11 
2.285
 21 
0.296
 0 
LINE
 8 
0
 62 
 7 
 10 
2.285
 20 
0.296
 11 
2.31
 21 
0.296
 0 
LINE
 8 
0
 62 
 7 
 10 
1.84
 20 
0.363
 11 
1.743
 21 
0.363
 0 
LINE
 8 
0
 62 
 7 
 10 
1.743
 20 
0.313
 11 
1.743
 21 
0.362
 0 
LINE
 8 
0
 62 
 7 
 10 
1.744
 20 
0.313
 11 
1.84
 21 
0.313
 0 
LINE
 8 
0
 62 
 7 
 10 
1.842
 20 
0.313
 11 
1.842
 21 
0.363
 0 
LINE
 8 
0
 62 
 7 
 10 
1.83
 20 
0.403
 11 
1.824
 21 
0.409
 0 
LINE
 8 
0
 62 
 7 
 10 
1.824
 20 
0.409
 11 
1.811
 21 
0.409
 0 
LINE
 8 
0
 62 
 7 
 10 
1.811
 20 
0.409
 11 
1.805
 21 
0.403
 0 
LINE
 8 
0
 62 
 7 
 10 
1.805
 20 
0.403
 11 
1.805
 21 
0.377
 0 
LINE
 8 
0
 62 
 7 
 10 
1.805
 20 
0.377
 11 
1.811
 21 
0.371
 0 
LINE
 8 
0
 62 
 7 
 10 
1.811
 20 
0.371
 11 
1.824
 21 
0.371
 0 
LINE
 8 
0
 62 
 7 
 10 
1.824
 20 
0.371
 11 
1.83
 21 
0.377
 0 
LINE
 8 
0
 62 
 7 
 10 
1.868
 20 
0.396
 11 
1.862
 21 
0.39
 0 
LINE
 8 
0
 62 
 7 
 10 
1.862
 20 
0.39
 11 
1.849
 21 
0.39
 0 
LINE
 8 
0
 62 
 7 
 10 
1.849
 20 
0.39
 11 
1.843
 21 
0.396
 0 
LINE
 8 
0
 62 
 7 
 10 
1.843
 20 
0.396
 11 
1.843
 21 
0.403
 0 
LINE
 8 
0
 62 
 7 
 10 
1.843
 20 
0.403
 11 
1.849
 21 
0.409
 0 
LINE
 8 
0
 62 
 7 
 10 
1.849
 20 
0.409
 11 
1.862
 21 
0.409
 0 
LINE
 8 
0
 62 
 7 
 10 
1.862
 20 
0.409
 11 
1.868
 21 
0.403
 0 
LINE
 8 
0
 62 
 7 
 10 
1.868
 20 
0.403
 11 
1.868
 21 
0.384
 0 
LINE
 8 
0
 62 
 7 
 10 
1.868
 20 
0.384
 11 
1.856
 21 
0.371
 0 
LINE
 8 
0
 62 
 7 
 10 
1.856
 20 
0.371
 11 
1.849
 21 
0.371
 0 
LINE
 8 
0
 62 
 7 
 10 
1.948
 20 
0.458
 11 
2.045
 21 
0.458
 0 
LINE
 8 
0
 62 
 7 
 10 
2.045
 20 
0.508
 11 
2.045
 21 
0.459
 0 
LINE
 8 
0
 62 
 7 
 10 
2.044
 20 
0.508
 11 
1.948
 21 
0.508
 0 
LINE
 8 
0
 62 
 7 
 10 
1.946
 20 
0.508
 11 
1.946
 21 
0.458
 0 
LINE
 8 
0
 62 
 7 
 10 
2.08
 20 
0.497
 11 
2.074
 21 
0.503
 0 
LINE
 8 
0
 62 
 7 
 10 
2.074
 20 
0.503
 11 
2.061
 21 
0.503
 0 
LINE
 8 
0
 62 
 7 
 10 
2.061
 20 
0.503
 11 
2.055
 21 
0.497
 0 
LINE
 8 
0
 62 
 7 
 10 
2.055
 20 
0.497
 11 
2.055
 21 
0.471
 0 
LINE
 8 
0
 62 
 7 
 10 
2.055
 20 
0.471
 11 
2.061
 21 
0.465
 0 
LINE
 8 
0
 62 
 7 
 10 
2.061
 20 
0.465
 11 
2.074
 21 
0.465
 0 
LINE
 8 
0
 62 
 7 
 10 
2.074
 20 
0.465
 11 
2.08
 21 
0.471
 0 
LINE
 8 
0
 62 
 7 
 10 
2.099
 20 
0.497
 11 
2.106
 21 
0.503
 0 
LINE
 8 
0
 62 
 7 
 10 
2.106
 20 
0.503
 11 
2.106
 21 
0.465
 0 
LINE
 8 
0
 62 
 7 
 10 
2.099
 20 
0.465
 11 
2.112
 21 
0.465
 0 
LINE
 8 
0
 62 
 7 
 10 
2.131
 20 
0.497
 11 
2.137
 21 
0.503
 0 
LINE
 8 
0
 62 
 7 
 10 
2.137
 20 
0.503
 11 
2.15
 21 
0.503
 0 
LINE
 8 
0
 62 
 7 
 10 
2.15
 20 
0.503
 11 
2.156
 21 
0.497
 0 
LINE
 8 
0
 62 
 7 
 10 
2.156
 20 
0.497
 11 
2.156
 21 
0.49
 0 
LINE
 8 
0
 62 
 7 
 10 
2.156
 20 
0.49
 11 
2.15
 21 
0.484
 0 
LINE
 8 
0
 62 
 7 
 10 
2.15
 20 
0.484
 11 
2.137
 21 
0.484
 0 
LINE
 8 
0
 62 
 7 
 10 
2.137
 20 
0.484
 11 
2.131
 21 
0.478
 0 
LINE
 8 
0
 62 
 7 
 10 
2.131
 20 
0.478
 11 
2.131
 21 
0.465
 0 
LINE
 8 
0
 62 
 7 
 10 
2.131
 20 
0.465
 11 
2.156
 21 
0.465
 0 
CIRCLE
 8 
0
 62 
 7 
 10 
0.1
 20 
0.8
 40 
0.062
 0 
LINE
 8 
0
 62 
 7 
 10 
2.169
 20 
0.322
 11 
2.169
 21 
0.297
 0 
LINE
 8 
0
 62 
 7 
 10 
2.169
 20 
0.31
 11 
2.182
 21 
0.322
 0 
LINE
 8 
0
 62 
 7 
 10 
2.182
 20 
0.322
 11 
2.188
 21 
0.322
 0 
LINE
 8 
0
 62 
 7 
 10 
2.188
 20 
0.322
 11 
2.194
 21 
0.316
 0 
LINE
 8 
0
 62 
 7 
 10 
2.194
 20 
0.316
 11 
2.194
 21 
0.297
 0 
LINE
 8 
0
 62 
 7 
 10 
2.232
 20 
0.335
 11 
2.207
 21 
0.335
 0 
LINE
 8 
0
 62 
 7 
 10 
2.207
 20 
0.335
 11 
2.207
 21 
0.297
 0 
LINE
 8 
0
 62 
 7 
 10 
2.207
 20 
0.297
 11 
2.232
 21 
0.297
 0 
LINE
 8 
0
 62 
 7 
 10 
2.207
 20 
0.316
 11 
2.226
 21 
0.316
 0 
CIRCLE
 8 
0
 62 
 7 
 10 
0.1
 20 
0.1
 40 
0.062
 0 
LINE
 8 
0
 62 
 7 
 10 
2.193
 20 
0.468
 11 
2.193
 21 
0.506
 0 
LINE
 8 
0
 62 
 7 
 10 
2.193
 20 
0.506
 11 
2.212
 21 
0.506
 0 
LINE
 8 
0
 62 
 7 
 10 
2.212
 20 
0.506
 11 
2.218
 21 
0.5
 0 
LINE
 8 
0
 62 
 7 
 10 
2.218
 20 
0.5
 11 
2.218
 21 
0.493
 0 
LINE
 8 
0
 62 
 7 
 10 
2.218
 20 
0.493
 11 
2.212
 21 
0.487
 0 
LINE
 8 
0
 62 
 7 
 10 
2.212
 20 
0.487
 11 
2.193
 21 
0.487
 0 
LINE
 8 
0
 62 
 7 
 10 
2.199
 20 
0.487
 11 
2.218
 21 
0.468
 0 
LINE
 8 
0
 62 
 7 
 10 
2.231
 20 
0.5
 11 
2.237
 21 
0.506
 0 
LINE
 8 
0
 62 
 7 
 10 
2.237
 20 
0.506
 11 
2.25
 21 
0.506
 0 
LINE
 8 
0
 62 
 7 
 10 
2.25
 20 
0.506
 11 
2.256
 21 
0.5
 0 
LINE
 8 
0
 62 
 7 
 10 
2.256
 20 
0.5
 11 
2.256
 21 
0.493
 0 
LINE
 8 
0
 62 
 7 
 10 
2.256
 20 
0.493
 11 
2.25
 21 
0.487
 0 
LINE
 8 
0
 62 
 7 
 10 
2.25
 20 
0.487
 11 
2.237
 21 
0.487
 0 
LINE
 8 
0
 62 
 7 
 10 
2.237
 20 
0.487
 11 
2.231
 21 
0.481
 0 
LINE
 8 
0
 62 
 7 
 10 
2.231
 20 
0.481
 11 
2.231
 21 
0.468
 0 
LINE
 8 
0
 62 
 7 
 10 
2.231
 20 
0.468
 11 
2.256
 21 
0.468
 0 
LINE
 8 
0
 62 
 7 
 10 
2.294
 20 
0.481
 11 
2.269
 21 
0.481
 0 
LINE
 8 
0
 62 
 7 
 10 
2.269
 20 
0.481
 11 
2.269
 21 
0.487
 0 
LINE
 8 
0
 62 
 7 
 10 
2.269
 20 
0.487
 11 
2.288
 21 
0.506
 0 
LINE
 8 
0
 62 
 7 
 10 
2.288
 20 
0.506
 11 
2.288
 21 
0.468
 0 
LINE
 8 
0
 62 
 7 
 10 
2.345
 20 
0.487
 11 
2.37
 21 
0.487
 0 
LINE
 8 
0
 62 
 7 
 10 
2.421
 20 
0.468
 11 
2.421
 21 
0.506
 0 
LINE
 8 
0
 62 
 7 
 10 
2.421
 20 
0.506
 11 
2.44
 21 
0.506
 0 
LINE
 8 
0
 62 
 7 
 10 
2.44
 20 
0.506
 11 
2.446
 21 
0.5
 0 
LINE
 8 
0
 62 
 7 
 10 
2.446
 20 
0.5
 11 
2.446
 21 
0.493
 0 
LINE
 8 
0
 62 
 7 
 10 
2.446
 20 
0.493
 11 
2.44
 21 
0.487
 0 
LINE
 8 
0
 62 
 7 
 10 
2.44
 20 
0.487
 11 
2.421
 21 
0.487
 0 
LINE
 8 
0
 62 
 7 
 10 
2.427
 20 
0.487
 11 
2.446
 21 
0.468
 0 
LINE
 8 
0
 62 
 7 
 10 
2.459
 20 
0.5
 11 
2.465
 21 
0.506
 0 
LINE
 8 
0
 62 
 7 
 10 
2.465
 20 
0.506
 11 
2.478
 21 
0.506
 0 
LINE
 8 
0
 62 
 7 
 10 
2.478
 20 
0.506
 11 
2.484
 21 
0.5
 0 
LINE
 8 
0
 62 
 7 
 10 
2.484
 20 
0.5
 11 
2.484
 21 
0.493
 0 
LINE
 8 
0
 62 
 7 
 10 
2.484
 20 
0.493
 11 
2.478
 21 
0.487
 0 
LINE
 8 
0
 62 
 7 
 10 
2.478
 20 
0.487
 11 
2.465
 21 
0.487
 0 
LINE
 8 
0
 62 
 7 
 10 
2.465
 20 
0.487
 11 
2.459
 21 
0.481
 0 
LINE
 8 
0
 62 
 7 
 10 
2.459
 20 
0.481
 11 
2.459
 21 
0.468
 0 
LINE
 8 
0
 62 
 7 
 10 
2.459
 20 
0.468
 11 
2.484
 21 
0.468
 0 
LINE
 8 
0
 62 
 7 
 10 
2.503
 20 
0.5
 11 
2.51
 21 
0.506
 0 
LINE
 8 
0
 62 
 7 
 10 
2.51
 20 
0.506
 11 
2.51
 21 
0.468
 0 
LINE
 8 
0
 62 
 7 
 10 
2.503
 20 
0.468
 11 
2.516
 21 
0.468
 0 
LINE
 8 
0
 62 
 7 
 10 
0.262
 20 
0.85
 11 
0.281
 21 
0.85
 0 
LINE
 8 
0
 62 
 7 
 10 
0.281
 20 
0.85
 11 
0.287
 21 
0.844
 0 
LINE
 8 
0
 62 
 7 
 10 
0.287
 20 
0.844
 11 
0.287
 21 
0.818
 0 
LINE
 8 
0
 62 
 7 
 10 
0.287
 20 
0.818
 11 
0.281
 21 
0.812
 0 
LINE
 8 
0
 62 
 7 
 10 
0.281
 20 
0.812
 11 
0.262
 21 
0.812
 0 
LINE
 8 
0
 62 
 7 
 10 
0.268
 20 
0.85
 11 
0.268
 21 
0.812
 0 
LINE
 8 
0
 62 
 7 
 10 
0.313
 20 
0.85
 11 
0.313
 21 
0.844
 0 
LINE
 8 
0
 62 
 7 
 10 
0.306
 20 
0.812
 11 
0.319
 21 
0.812
 0 
LINE
 8 
0
 62 
 7 
 10 
0.306
 20 
0.831
 11 
0.313
 21 
0.831
 0 
LINE
 8 
0
 62 
 7 
 10 
0.313
 20 
0.831
 11 
0.313
 21 
0.812
 0 
LINE
 8 
0
 62 
 7 
 10 
0.363
 20 
0.844
 11 
0.357
 21 
0.85
 0 
LINE
 8 
0
 62 
 7 
 10 
0.357
 20 
0.85
 11 
0.351
 21 
0.844
 0 
LINE
 8 
0
 62 
 7 
 10 
0.351
 20 
0.844
 11 
0.351
 21 
0.812
 0 
LINE
 8 
0
 62 
 7 
 10 
0.344
 20 
0.831
 11 
0.357
 21 
0.831
 0 
LINE
 8 
0
 62 
 7 
 10 
0.344
 20 
0.812
 11 
0.357
 21 
0.812
 0 
LINE
 8 
0
 62 
 7 
 10 
0.401
 20 
0.844
 11 
0.395
 21 
0.85
 0 
LINE
 8 
0
 62 
 7 
 10 
0.395
 20 
0.85
 11 
0.389
 21 
0.844
 0 
LINE
 8 
0
 62 
 7 
 10 
0.389
 20 
0.844
 11 
0.389
 21 
0.812
 0 
LINE
 8 
0
 62 
 7 
 10 
0.382
 20 
0.831
 11 
0.395
 21 
0.831
 0 
LINE
 8 
0
 62 
 7 
 10 
0.382
 20 
0.812
 11 
0.395
 21 
0.812
 0 
LINE
 8 
0
 62 
 7 
 10 
0.414
 20 
0.825
 11 
0.439
 21 
0.825
 0 
LINE
 8 
0
 62 
 7 
 10 
0.439
 20 
0.825
 11 
0.439
 21 
0.831
 0 
LINE
 8 
0
 62 
 7 
 10 
0.439
 20 
0.831
 11 
0.433
 21 
0.837
 0 
LINE
 8 
0
 62 
 7 
 10 
0.433
 20 
0.837
 11 
0.42
 21 
0.837
 0 
LINE
 8 
0
 62 
 7 
 10 
0.42
 20 
0.837
 11 
0.414
 21 
0.831
 0 
LINE
 8 
0
 62 
 7 
 10 
0.414
 20 
0.831
 11 
0.414
 21 
0.818
 0 
LINE
 8 
0
 62 
 7 
 10 
0.414
 20 
0.818
 11 
0.42
 21 
0.812
 0 
LINE
 8 
0
 62 
 7 
 10 
0.42
 20 
0.812
 11 
0.433
 21 
0.812
 0 
LINE
 8 
0
 62 
 7 
 10 
0.452
 20 
0.837
 11 
0.452
 21 
0.812
 0 
LINE
 8 
0
 62 
 7 
 10 
0.452
 20 
0.825
 11 
0.465
 21 
0.837
 0 
LINE
 8 
0
 62 
 7 
 10 
0.465
 20 
0.837
 11 
0.471
 21 
0.837
 0 
LINE
 8 
0
 62 
 7 
 10 
0.471
 20 
0.837
 11 
0.477
 21 
0.831
 0 
LINE
 8 
0
 62 
 7 
 10 
0.49
 20 
0.825
 11 
0.515
 21 
0.825
 0 
LINE
 8 
0
 62 
 7 
 10 
0.515
 20 
0.825
 11 
0.515
 21 
0.831
 0 
LINE
 8 
0
 62 
 7 
 10 
0.515
 20 
0.831
 11 
0.509
 21 
0.837
 0 
LINE
 8 
0
 62 
 7 
 10 
0.509
 20 
0.837
 11 
0.496
 21 
0.837
 0 
LINE
 8 
0
 62 
 7 
 10 
0.496
 20 
0.837
 11 
0.49
 21 
0.831
 0 
LINE
 8 
0
 62 
 7 
 10 
0.49
 20 
0.831
 11 
0.49
 21 
0.818
 0 
LINE
 8 
0
 62 
 7 
 10 
0.49
 20 
0.818
 11 
0.496
 21 
0.812
 0 
LINE
 8 
0
 62 
 7 
 10 
0.496
 20 
0.812
 11 
0.509
 21 
0.812
 0 
LINE
 8 
0
 62 
 7 
 10 
0.528
 20 
0.837
 11 
0.528
 21 
0.812
 0 
LINE
 8 
0
 62 
 7 
 10 
0.528
 20 
0.825
 11 
0.541
 21 
0.837
 0 
LINE
 8 
0
 62 
 7 
 10 
0.541
 20 
0.837
 11 
0.547
 21 
0.837
 0 
LINE
 8 
0
 62 
 7 
 10 
0.547
 20 
0.837
 11 
0.553
 21 
0.831
 0 
LINE
 8 
0
 62 
 7 
 10 
0.553
 20 
0.831
 11 
0.553
 21 
0.812
 0 
LINE
 8 
0
 62 
 7 
 10 
0.572
 20 
0.85
 11 
0.572
 21 
0.818
 0 
LINE
 8 
0
 62 
 7 
 10 
0.572
 20 
0.818
 11 
0.579
 21 
0.812
 0 
LINE
 8 
0
 62 
 7 
 10 
0.579
 20 
0.812
 11 
0.585
 21 
0.812
 0 
LINE
 8 
0
 62 
 7 
 10 
0.585
 20 
0.812
 11 
0.591
 21 
0.818
 0 
LINE
 8 
0
 62 
 7 
 10 
0.566
 20 
0.837
 11 
0.585
 21 
0.837
 0 
LINE
 8 
0
 62 
 7 
 10 
0.617
 20 
0.85
 11 
0.617
 21 
0.844
 0 
LINE
 8 
0
 62 
 7 
 10 
0.61
 20 
0.812
 11 
0.623
 21 
0.812
 0 
LINE
 8 
0
 62 
 7 
 10 
0.61
 20 
0.831
 11 
0.617
 21 
0.831
 0 
LINE
 8 
0
 62 
 7 
 10 
0.617
 20 
0.831
 11 
0.617
 21 
0.812
 0 
LINE
 8 
0
 62 
 7 
 10 
0.648
 20 
0.837
 11 
0.661
 21 
0.837
 0 
LINE
 8 
0
 62 
 7 
 10 
0.661
 20 
0.837
 11 
0.667
 21 
0.831
 0 
LINE
 8 
0
 62 
 7 
 10 
0.667
 20 
0.831
 11 
0.667
 21 
0.812
 0 
LINE
 8 
0
 62 
 7 
 10 
0.667
 20 
0.825
 11 
0.648
 21 
0.825
 0 
LINE
 8 
0
 62 
 7 
 10 
0.648
 20 
0.825
 11 
0.642
 21 
0.818
 0 
LINE
 8 
0
 62 
 7 
 10 
0.642
 20 
0.818
 11 
0.648
 21 
0.812
 0 
LINE
 8 
0
 62 
 7 
 10 
0.648
 20 
0.812
 11 
0.661
 21 
0.812
 0 
LINE
 8 
0
 62 
 7 
 10 
0.661
 20 
0.812
 11 
0.667
 21 
0.818
 0 
LINE
 8 
0
 62 
 7 
 10 
0.686
 20 
0.85
 11 
0.693
 21 
0.85
 0 
LINE
 8 
0
 62 
 7 
 10 
0.693
 20 
0.85
 11 
0.693
 21 
0.812
 0 
LINE
 8 
0
 62 
 7 
 10 
0.686
 20 
0.812
 11 
0.699
 21 
0.812
 0 
LINE
 8 
0
 62 
 7 
 10 
0.781
 20 
0.844
 11 
0.775
 21 
0.85
 0 
LINE
 8 
0
 62 
 7 
 10 
0.775
 20 
0.85
 11 
0.762
 21 
0.85
 0 
LINE
 8 
0
 62 
 7 
 10 
0.762
 20 
0.85
 11 
0.756
 21 
0.844
 0 
LINE
 8 
0
 62 
 7 
 10 
0.756
 20 
0.844
 11 
0.756
 21 
0.818
 0 
LINE
 8 
0
 62 
 7 
 10 
0.756
 20 
0.818
 11 
0.762
 21 
0.812
 0 
LINE
 8 
0
 62 
 7 
 10 
0.762
 20 
0.812
 11 
0.775
 21 
0.812
 0 
LINE
 8 
0
 62 
 7 
 10 
0.775
 20 
0.812
 11 
0.781
 21 
0.818
 0 
LINE
 8 
0
 62 
 7 
 10 
0.8
 20 
0.85
 11 
0.807
 21 
0.85
 0 
LINE
 8 
0
 62 
 7 
 10 
0.807
 20 
0.85
 11 
0.807
 21 
0.812
 0 
LINE
 8 
0
 62 
 7 
 10 
0.8
 20 
0.812
 11 
0.813
 21 
0.812
 0 
LINE
 8 
0
 62 
 7 
 10 
0.857
 20 
0.831
 11 
0.851
 21 
0.837
 0 
LINE
 8 
0
 62 
 7 
 10 
0.851
 20 
0.837
 11 
0.838
 21 
0.837
 0 
LINE
 8 
0
 62 
 7 
 10 
0.838
 20 
0.837
 11 
0.832
 21 
0.831
 0 
LINE
 8 
0
 62 
 7 
 10 
0.832
 20 
0.831
 11 
0.832
 21 
0.818
 0 
LINE
 8 
0
 62 
 7 
 10 
0.832
 20 
0.818
 11 
0.838
 21 
0.812
 0 
LINE
 8 
0
 62 
 7 
 10 
0.838
 20 
0.812
 11 
0.851
 21 
0.812
 0 
LINE
 8 
0
 62 
 7 
 10 
0.851
 20 
0.812
 11 
0.857
 21 
0.818
 0 
LINE
 8 
0
 62 
 7 
 10 
0.857
 20 
0.818
 11 
0.857
 21 
0.831
 0 
LINE
 8 
0
 62 
 7 
 10 
0.895
 20 
0.831
 11 
0.889
 21 
0.837
 0 
LINE
 8 
0
 62 
 7 
 10 
0.889
 20 
0.837
 11 
0.876
 21 
0.837
 0 
LINE
 8 
0
 62 
 7 
 10 
0.876
 20 
0.837
 11 
0.87
 21 
0.831
 0 
LINE
 8 
0
 62 
 7 
 10 
0.87
 20 
0.831
 11 
0.87
 21 
0.818
 0 
LINE
 8 
0
 62 
 7 
 10 
0.87
 20 
0.818
 11 
0.876
 21 
0.812
 0 
LINE
 8 
0
 62 
 7 
 10 
0.876
 20 
0.812
 11 
0.889
 21 
0.812
 0 
LINE
 8 
0
 62 
 7 
 10 
0.889
 20 
0.812
 11 
0.895
 21 
0.818
 0 
LINE
 8 
0
 62 
 7 
 10 
0.908
 20 
0.85
 11 
0.914
 21 
0.85
 0 
LINE
 8 
0
 62 
 7 
 10 
0.914
 20 
0.85
 11 
0.914
 21 
0.812
 0 
LINE
 8 
0
 62 
 7 
 10 
0.933
 20 
0.837
 11 
0.921
 21 
0.825
 0 
LINE
 8 
0
 62 
 7 
 10 
0.921
 20 
0.825
 11 
0.933
 21 
0.812
 0 
LINE
 8 
0
 62 
 7 
 10 
0.914
 20 
0.825
 11 
0.921
 21 
0.825
 0 
LINE
 8 
0
 62 
 7 
 10 
0.984
 20 
0.85
 11 
1.003
 21 
0.85
 0 
LINE
 8 
0
 62 
 7 
 10 
1.003
 20 
0.85
 11 
1.009
 21 
0.844
 0 
LINE
 8 
0
 62 
 7 
 10 
1.009
 20 
0.844
 11 
1.009
 21 
0.818
 0 
LINE
 8 
0
 62 
 7 
 10 
1.009
 20 
0.818
 11 
1.003
 21 
0.812
 0 
LINE
 8 
0
 62 
 7 
 10 
1.003
 20 
0.812
 11 
0.984
 21 
0.812
 0 
LINE
 8 
0
 62 
 7 
 10 
0.99
 20 
0.85
 11 
0.99
 21 
0.812
 0 
LINE
 8 
0
 62 
 7 
 10 
1.035
 20 
0.85
 11 
1.035
 21 
0.844
 0 
LINE
 8 
0
 62 
 7 
 10 
1.028
 20 
0.812
 11 
1.041
 21 
0.812
 0 
LINE
 8 
0
 62 
 7 
 10 
1.028
 20 
0.831
 11 
1.035
 21 
0.831
 0 
LINE
 8 
0
 62 
 7 
 10 
1.035
 20 
0.831
 11 
1.035
 21 
0.812
 0 
LINE
 8 
0
 62 
 7 
 10 
1.06
 20 
0.837
 11 
1.06
 21 
0.825
 0 
LINE
 8 
0
 62 
 7 
 10 
1.06
 20 
0.825
 11 
1.073
 21 
0.812
 0 
LINE
 8 
0
 62 
 7 
 10 
1.073
 20 
0.812
 11 
1.085
 21 
0.825
 0 
LINE
 8 
0
 62 
 7 
 10 
1.085
 20 
0.825
 11 
1.085
 21 
0.837
 0 
LINE
 8 
0
 62 
 7 
 10 
1.111
 20 
0.85
 11 
1.111
 21 
0.844
 0 
LINE
 8 
0
 62 
 7 
 10 
1.104
 20 
0.812
 11 
1.117
 21 
0.812
 0 
LINE
 8 
0
 62 
 7 
 10 
1.104
 20 
0.831
 11 
1.111
 21 
0.831
 0 
LINE
 8 
0
 62 
 7 
 10 
1.111
 20 
0.831
 11 
1.111
 21 
0.812
 0 
LINE
 8 
0
 62 
 7 
 10 
1.155
 20 
0.85
 11 
1.161
 21 
0.85
 0 
LINE
 8 
0
 62 
 7 
 10 
1.161
 20 
0.85
 11 
1.161
 21 
0.812
 0 
LINE
 8 
0
 62 
 7 
 10 
1.161
 20 
0.831
 11 
1.155
 21 
0.837
 0 
LINE
 8 
0
 62 
 7 
 10 
1.155
 20 
0.837
 11 
1.142
 21 
0.837
 0 
LINE
 8 
0
 62 
 7 
 10 
1.142
 20 
0.837
 11 
1.136
 21 
0.831
 0 
LINE
 8 
0
 62 
 7 
 10 
1.136
 20 
0.831
 11 
1.136
 21 
0.818
 0 
LINE
 8 
0
 62 
 7 
 10 
1.136
 20 
0.818
 11 
1.142
 21 
0.812
 0 
LINE
 8 
0
 62 
 7 
 10 
1.142
 20 
0.812
 11 
1.149
 21 
0.812
 0 
LINE
 8 
0
 62 
 7 
 10 
1.149
 20 
0.812
 11 
1.161
 21 
0.825
 0 
LINE
 8 
0
 62 
 7 
 10 
1.174
 20 
0.825
 11 
1.199
 21 
0.825
 0 
LINE
 8 
0
 62 
 7 
 10 
1.199
 20 
0.825
 11 
1.199
 21 
0.831
 0 
LINE
 8 
0
 62 
 7 
 10 
1.199
 20 
0.831
 11 
1.193
 21 
0.837
 0 
LINE
 8 
0
 62 
 7 
 10 
1.193
 20 
0.837
 11 
1.18
 21 
0.837
 0 
LINE
 8 
0
 62 
 7 
 10 
1.18
 20 
0.837
 11 
1.174
 21 
0.831
 0 
LINE
 8 
0
 62 
 7 
 10 
1.174
 20 
0.831
 11 
1.174
 21 
0.818
 0 
LINE
 8 
0
 62 
 7 
 10 
1.174
 20 
0.818
 11 
1.18
 21 
0.812
 0 
LINE
 8 
0
 62 
 7 
 10 
1.18
 20 
0.812
 11 
1.193
 21 
0.812
 0 
LINE
 8 
0
 62 
 7 
 10 
1.212
 20 
0.837
 11 
1.212
 21 
0.812
 0 
LINE
 8 
0
 62 
 7 
 10 
1.212
 20 
0.825
 11 
1.225
 21 
0.837
 0 
LINE
 8 
0
 62 
 7 
 10 
1.225
 20 
0.837
 11 
1.231
 21 
0.837
 0 
LINE
 8 
0
 62 
 7 
 10 
1.231
 20 
0.837
 11 
1.237
 21 
0.831
 0 
CIRCLE
 8 
0
 62 
 7 
 10 
0.578
 20 
0.698
 40 
0.014
 0 
CIRCLE
 8 
0
 62 
 7 
 10 
0.578
 20 
0.498
 40 
0.014
 0 
CIRCLE
 8 
0
 62 
 7 
 10 
0.578
 20 
0.398
 40 
0.014
 0 
CIRCLE
 8 
0
 62 
 7 
 10 
0.578
 20 
0.298
 40 
0.014
 0 
CIRCLE
 8 
0
 62 
 7 
 10 
0.778
 20 
0.298
 40 
0.014
 0 
CIRCLE
 8 
0
 62 
 7 
 10 
0.778
 20 
0.398
 40 
0.014
 0 
CIRCLE
 8 
0
 62 
 7 
 10 
0.778
 20 
0.498
 40 
0.014
 0 
CIRCLE
 8 
0
 62 
 7 
 10 
0.778
 20 
0.698
 40 
0.014
 0 
LINE
 8 
0
 62 
 7 
 10 
0.528
 20 
0.773
 11 
0.528
 21 
0.123
 0 
LINE
 8 
0
 62 
 7 
 10 
0.528
 20 
0.123
 11 
0.828
 21 
0.123
 0 
LINE
 8 
0
 62 
 7 
 10 
0.828
 20 
0.123
 11 
0.828
 21 
0.773
 0 
LINE
 8 
0
 62 
 7 
 10 
0.528
 20 
0.773
 11 
0.828
 21 
0.773
 0 
LINE
 8 
0
 62 
 7 
 10 
0.642
 20 
0.626
 11 
0.642
 21 
0.576
 0 
LINE
 8 
0
 62 
 7 
 10 
0.675
 20 
0.626
 11 
0.65
 21 
0.601
 0 
LINE
 8 
0
 62 
 7 
 10 
0.642
 20 
0.601
 11 
0.65
 21 
0.601
 0 
LINE
 8 
0
 62 
 7 
 10 
0.65
 20 
0.601
 11 
0.675
 21 
0.576
 0 
LINE
 8 
0
 62 
 7 
 10 
0.7
 20 
0.618
 11 
0.709
 21 
0.626
 0 
LINE
 8 
0
 62 
 7 
 10 
0.709
 20 
0.626
 11 
0.709
 21 
0.576
 0 
LINE
 8 
0
 62 
 7 
 10 
0.7
 20 
0.576
 11 
0.717
 21 
0.576
 0 
ENDSEC
 0 
EOF
