 0 
SECTION
 2 
HEADER
 9 
$ACADVER
 1 
AC1004
 9 
$EXTMIN
 10 
-0.004
 20 
0.0
 9 
$EXTMAX
 10 
1.975
 20 
1.25
 9 
$LIMMIN
 10 
-0.004
 20 
0.0
 9 
$LIMMAX
 10 
1.975
 20 
1.25
 9 
$INSBASE
 10 
0.0
 20 
0.0
 9 
$VIEWCTR
 10 
0.986
 20 
0.625
 9 
$VIEWSIZE
 40 
1.25
 9 
$ORTHOMODE
 70 
 0 
 9 
$REGENMODE
 70 
 1 
 9 
$FILLMODE
 70 
 1 
 9 
$QTEXTMODE
 70 
 0 
 9 
$DRAGMODE
 70 
 2 
 9 
$LTSCALE
 40 
1.0
 9 
$OSMODE
 70 
 0 
 9 
$ATTMODE
 70 
 1 
 9 
$TEXTSIZE
 40 
0.2
 9 
$TRACEWID
 40 
0.05
 9 
$TEXTSTYLE
 7 
STANDARD
 9 
$CLAYER
 8 
0
 9 
$CELTYPE
 6 
BYLAYER
 9 
$CECOLOR
 62 
 256 
 9 
$DIMSCALE
 40 
1.0
 9 
$DIMLFAC
 40 
1.0
 9 
$LUNITS
 70 
 2 
 9 
$LUPREC
 70 
 4 
 9 
$AXISMODE
 70 
 0 
 9 
$AXISUNIT
 10 
0.0
 20 
0.0
 9 
$SKETCHINC
 40 
0.1
 9 
$MENU
 1 
acad
 9 
$ELEVATION
 40 
0.0
 9 
$THICKNESS
 40 
0.0
 9 
$VIEWDIR
 10 
0.0
 20 
0.0
 30 
1.0
 9 
$LIMCHECK
 70 
 0 
 9 
$BLIPMODE
 70 
 1 
 9 
$FASTZOOM
 70 
 1 
 9 
$SKPOLY
 70 
 0 
 9 
$ANGBASE
 50 
0.0
 9 
$ANGDIR
 70 
 0 
 9 
$PDMODE
 70 
 0 
 9 
$PDSIZE
 40 
0.0
 9 
$PLINEWID
 40 
0.0
 9 
$COORDS
 70 
 0 
 9 
$ATTDIA
 70 
 0 
 9 
$ATTREQ
 70 
 1 
 0 
ENDSEC
 0 
SECTION
 2 
TABLES
 0 
TABLE
 2 
LTYPE
 70 
 10 
 0 
LTYPE
 2 
CONTINUOUS
 70 
 64 
 3 
Solid line
 72 
 65 
 73 
 0 
 40 
0.0
 0 
ENDTAB
 0 
TABLE
 2 
LAYER
 70 
 153 
 0 
LAYER
 2 
0
 70 
 64 
 62 
 7 
 6 
CONTINUOUS
 0 
ENDTAB
 0 
ENDSEC
 0 
SECTION
 2 
BLOCKS
 0 
ENDSEC
 0 
SECTION
 2 
ENTITIES
 0 
LINE
 8 
0
 62 
 7 
 10 
0.0
 20 
1.25
 11 
0.0
 21 
0.0
 0 
LINE
 8 
0
 62 
 7 
 10 
0.0
 20 
0.0
 11 
1.975
 21 
0.0
 0 
LINE
 8 
0
 62 
 7 
 10 
1.975
 20 
0.0
 11 
1.975
 21 
1.25
 0 
LINE
 8 
0
 62 
 7 
 10 
1.975
 20 
1.25
 11 
0.0
 21 
1.25
 0 
CIRCLE
 8 
0
 62 
 7 
 10 
1.085
 20 
0.525
 40 
0.016
 0 
LINE
 8 
0
 62 
 7 
 10 
0.54
 20 
0.465
 11 
0.584
 21 
0.465
 0 
LINE
 8 
0
 62 
 7 
 10 
0.584
 20 
0.465
 11 
0.584
 21 
0.535
 0 
LINE
 8 
0
 62 
 7 
 10 
0.584
 20 
0.535
 11 
0.54
 21 
0.535
 0 
LINE
 8 
0
 62 
 7 
 10 
0.504
 20 
0.465
 11 
0.46
 21 
0.465
 0 
LINE
 8 
0
 62 
 7 
 10 
0.46
 20 
0.465
 11 
0.46
 21 
0.535
 0 
LINE
 8 
0
 62 
 7 
 10 
1.154
 20 
0.56
 11 
1.11
 21 
0.56
 0 
LINE
 8 
0
 62 
 7 
 10 
1.11
 20 
0.56
 11 
1.11
 21 
0.49
 0 
LINE
 8 
0
 62 
 7 
 10 
1.11
 20 
0.49
 11 
1.154
 21 
0.49
 0 
LINE
 8 
0
 62 
 7 
 10 
1.19
 20 
0.56
 11 
1.234
 21 
0.56
 0 
LINE
 8 
0
 62 
 7 
 10 
1.234
 20 
0.56
 11 
1.234
 21 
0.49
 0 
LINE
 8 
0
 62 
 7 
 10 
0.985
 20 
0.49
 11 
0.941
 21 
0.49
 0 
LINE
 8 
0
 62 
 7 
 10 
0.941
 20 
0.49
 11 
0.941
 21 
0.56
 0 
LINE
 8 
0
 62 
 7 
 10 
0.941
 20 
0.56
 11 
0.985
 21 
0.56
 0 
LINE
 8 
0
 62 
 7 
 10 
1.021
 20 
0.49
 11 
1.065
 21 
0.49
 0 
LINE
 8 
0
 62 
 7 
 10 
1.065
 20 
0.49
 11 
1.065
 21 
0.56
 0 
LINE
 8 
0
 62 
 7 
 10 
1.065
 20 
0.56
 11 
1.021
 21 
0.56
 0 
LINE
 8 
0
 62 
 7 
 10 
0.89
 20 
0.537
 11 
0.884
 21 
0.543
 0 
LINE
 8 
0
 62 
 7 
 10 
0.884
 20 
0.543
 11 
0.871
 21 
0.543
 0 
LINE
 8 
0
 62 
 7 
 10 
0.871
 20 
0.543
 11 
0.865
 21 
0.537
 0 
LINE
 8 
0
 62 
 7 
 10 
0.865
 20 
0.537
 11 
0.865
 21 
0.511
 0 
LINE
 8 
0
 62 
 7 
 10 
0.865
 20 
0.511
 11 
0.871
 21 
0.505
 0 
LINE
 8 
0
 62 
 7 
 10 
0.871
 20 
0.505
 11 
0.884
 21 
0.505
 0 
LINE
 8 
0
 62 
 7 
 10 
0.884
 20 
0.505
 11 
0.89
 21 
0.511
 0 
LINE
 8 
0
 62 
 7 
 10 
0.922
 20 
0.543
 11 
0.916
 21 
0.543
 0 
LINE
 8 
0
 62 
 7 
 10 
0.916
 20 
0.543
 11 
0.903
 21 
0.53
 0 
LINE
 8 
0
 62 
 7 
 10 
0.903
 20 
0.53
 11 
0.903
 21 
0.511
 0 
LINE
 8 
0
 62 
 7 
 10 
0.903
 20 
0.511
 11 
0.909
 21 
0.505
 0 
LINE
 8 
0
 62 
 7 
 10 
0.909
 20 
0.505
 11 
0.922
 21 
0.505
 0 
LINE
 8 
0
 62 
 7 
 10 
0.922
 20 
0.505
 11 
0.928
 21 
0.511
 0 
LINE
 8 
0
 62 
 7 
 10 
0.928
 20 
0.511
 11 
0.928
 21 
0.518
 0 
LINE
 8 
0
 62 
 7 
 10 
0.928
 20 
0.518
 11 
0.922
 21 
0.524
 0 
LINE
 8 
0
 62 
 7 
 10 
0.922
 20 
0.524
 11 
0.909
 21 
0.524
 0 
LINE
 8 
0
 62 
 7 
 10 
0.909
 20 
0.524
 11 
0.903
 21 
0.518
 0 
LINE
 8 
0
 62 
 7 
 10 
0.84
 20 
0.66
 11 
0.84
 21 
0.616
 0 
LINE
 8 
0
 62 
 7 
 10 
0.84
 20 
0.616
 11 
0.91
 21 
0.616
 0 
LINE
 8 
0
 62 
 7 
 10 
0.91
 20 
0.616
 11 
0.91
 21 
0.66
 0 
LINE
 8 
0
 62 
 7 
 10 
0.84
 20 
0.696
 11 
0.84
 21 
0.74
 0 
LINE
 8 
0
 62 
 7 
 10 
0.84
 20 
0.74
 11 
0.91
 21 
0.74
 0 
CIRCLE
 8 
0
 62 
 7 
 10 
0.475
 20 
0.325
 40 
0.02
 0 
CIRCLE
 8 
0
 62 
 7 
 10 
0.475
 20 
0.225
 40 
0.02
 0 
CIRCLE
 8 
0
 62 
 7 
 10 
0.475
 20 
0.125
 40 
0.02
 0 
LINE
 8 
0
 62 
 7 
 10 
0.35
 20 
0.385
 11 
0.6
 21 
0.385
 0 
LINE
 8 
0
 62 
 7 
 10 
0.6
 20 
0.065
 11 
0.6
 21 
0.385
 0 
CIRCLE
 8 
0
 62 
 7 
 10 
0.325
 20 
0.475
 40 
0.016
 0 
LINE
 8 
0
 62 
 7 
 10 
0.6
 20 
0.065
 11 
0.35
 21 
0.065
 0 
LINE
 8 
0
 62 
 7 
 10 
0.35
 20 
0.385
 11 
0.35
 21 
0.065
 0 
LINE
 8 
0
 62 
 7 
 10 
0.356
 20 
0.325
 11 
0.374
 21 
0.325
 0 
LINE
 8 
0
 62 
 7 
 10 
0.374
 20 
0.125
 11 
0.374
 21 
0.325
 0 
LINE
 8 
0
 62 
 7 
 10 
0.374
 20 
0.125
 11 
0.356
 21 
0.125
 0 
LINE
 8 
0
 62 
 7 
 10 
0.356
 20 
0.325
 11 
0.356
 21 
0.125
 0 
LINE
 8 
0
 62 
 7 
 10 
0.362
 20 
0.325
 11 
0.368
 21 
0.325
 0 
LINE
 8 
0
 62 
 7 
 10 
0.368
 20 
0.125
 11 
0.368
 21 
0.325
 0 
LINE
 8 
0
 62 
 7 
 10 
0.368
 20 
0.125
 11 
0.362
 21 
0.125
 0 
LINE
 8 
0
 62 
 7 
 10 
0.515
 20 
0.94
 11 
0.559
 21 
0.94
 0 
LINE
 8 
0
 62 
 7 
 10 
0.559
 20 
0.94
 11 
0.559
 21 
1.01
 0 
LINE
 8 
0
 62 
 7 
 10 
0.559
 20 
1.01
 11 
0.515
 21 
1.01
 0 
LINE
 8 
0
 62 
 7 
 10 
0.479
 20 
0.94
 11 
0.435
 21 
0.94
 0 
LINE
 8 
0
 62 
 7 
 10 
0.435
 20 
0.94
 11 
0.435
 21 
1.01
 0 
LINE
 8 
0
 62 
 7 
 10 
0.71
 20 
0.815
 11 
0.666
 21 
0.815
 0 
LINE
 8 
0
 62 
 7 
 10 
0.666
 20 
0.815
 11 
0.666
 21 
0.885
 0 
LINE
 8 
0
 62 
 7 
 10 
0.666
 20 
0.885
 11 
0.71
 21 
0.885
 0 
LINE
 8 
0
 62 
 7 
 10 
0.746
 20 
0.815
 11 
0.79
 21 
0.815
 0 
LINE
 8 
0
 62 
 7 
 10 
0.79
 20 
0.815
 11 
0.79
 21 
0.885
 0 
LINE
 8 
0
 62 
 7 
 10 
1.151
 20 
0.045
 11 
1.29
 21 
0.045
 0 
LINE
 8 
0
 62 
 7 
 10 
1.275
 20 
0.05
 11 
1.275
 21 
0.2
 0 
LINE
 8 
0
 62 
 7 
 10 
1.289
 20 
0.204
 11 
1.15
 21 
0.204
 0 
LINE
 8 
0
 62 
 7 
 10 
1.067
 20 
0.045
 11 
0.93
 21 
0.045
 0 
LINE
 8 
0
 62 
 7 
 10 
0.93
 20 
0.045
 11 
0.93
 21 
0.201
 0 
LINE
 8 
0
 62 
 7 
 10 
0.93
 20 
0.205
 11 
1.065
 21 
0.205
 0 
LINE
 8 
0
 62 
 7 
 10 
1.29
 20 
0.049
 11 
1.29
 21 
0.199
 0 
LINE
 8 
0
 62 
 7 
 10 
0.875
 20 
0.044
 11 
0.869
 21 
0.05
 0 
LINE
 8 
0
 62 
 7 
 10 
0.869
 20 
0.05
 11 
0.856
 21 
0.05
 0 
LINE
 8 
0
 62 
 7 
 10 
0.856
 20 
0.05
 11 
0.85
 21 
0.044
 0 
LINE
 8 
0
 62 
 7 
 10 
0.85
 20 
0.044
 11 
0.85
 21 
0.018
 0 
LINE
 8 
0
 62 
 7 
 10 
0.85
 20 
0.018
 11 
0.856
 21 
0.012
 0 
LINE
 8 
0
 62 
 7 
 10 
0.856
 20 
0.012
 11 
0.869
 21 
0.012
 0 
LINE
 8 
0
 62 
 7 
 10 
0.869
 20 
0.012
 11 
0.875
 21 
0.018
 0 
LINE
 8 
0
 62 
 7 
 10 
0.888
 20 
0.044
 11 
0.894
 21 
0.05
 0 
LINE
 8 
0
 62 
 7 
 10 
0.894
 20 
0.05
 11 
0.907
 21 
0.05
 0 
LINE
 8 
0
 62 
 7 
 10 
0.907
 20 
0.05
 11 
0.913
 21 
0.044
 0 
LINE
 8 
0
 62 
 7 
 10 
0.913
 20 
0.044
 11 
0.913
 21 
0.037
 0 
LINE
 8 
0
 62 
 7 
 10 
0.913
 20 
0.037
 11 
0.907
 21 
0.031
 0 
LINE
 8 
0
 62 
 7 
 10 
0.907
 20 
0.031
 11 
0.894
 21 
0.031
 0 
LINE
 8 
0
 62 
 7 
 10 
0.894
 20 
0.031
 11 
0.888
 21 
0.025
 0 
LINE
 8 
0
 62 
 7 
 10 
0.888
 20 
0.025
 11 
0.888
 21 
0.012
 0 
LINE
 8 
0
 62 
 7 
 10 
0.888
 20 
0.012
 11 
0.913
 21 
0.012
 0 
CIRCLE
 8 
0
 62 
 7 
 10 
0.125
 20 
0.35
 40 
0.016
 0 
LINE
 8 
0
 62 
 7 
 10 
1.074
 20 
0.405
 11 
0.935
 21 
0.405
 0 
LINE
 8 
0
 62 
 7 
 10 
0.95
 20 
0.4
 11 
0.95
 21 
0.25
 0 
LINE
 8 
0
 62 
 7 
 10 
0.936
 20 
0.246
 11 
1.075
 21 
0.246
 0 
LINE
 8 
0
 62 
 7 
 10 
1.158
 20 
0.405
 11 
1.295
 21 
0.405
 0 
LINE
 8 
0
 62 
 7 
 10 
1.295
 20 
0.405
 11 
1.295
 21 
0.249
 0 
LINE
 8 
0
 62 
 7 
 10 
1.295
 20 
0.245
 11 
1.16
 21 
0.245
 0 
LINE
 8 
0
 62 
 7 
 10 
0.935
 20 
0.401
 11 
0.935
 21 
0.251
 0 
LINE
 8 
0
 62 
 7 
 10 
1.233
 20 
0.45
 11 
1.227
 21 
0.456
 0 
LINE
 8 
0
 62 
 7 
 10 
1.227
 20 
0.456
 11 
1.214
 21 
0.456
 0 
LINE
 8 
0
 62 
 7 
 10 
1.214
 20 
0.456
 11 
1.208
 21 
0.45
 0 
LINE
 8 
0
 62 
 7 
 10 
1.208
 20 
0.45
 11 
1.208
 21 
0.424
 0 
LINE
 8 
0
 62 
 7 
 10 
1.208
 20 
0.424
 11 
1.214
 21 
0.418
 0 
LINE
 8 
0
 62 
 7 
 10 
1.214
 20 
0.418
 11 
1.227
 21 
0.418
 0 
LINE
 8 
0
 62 
 7 
 10 
1.227
 20 
0.418
 11 
1.233
 21 
0.424
 0 
LINE
 8 
0
 62 
 7 
 10 
1.252
 20 
0.45
 11 
1.259
 21 
0.456
 0 
LINE
 8 
0
 62 
 7 
 10 
1.259
 20 
0.456
 11 
1.259
 21 
0.418
 0 
LINE
 8 
0
 62 
 7 
 10 
1.252
 20 
0.418
 11 
1.265
 21 
0.418
 0 
CIRCLE
 8 
0
 62 
 7 
 10 
0.125
 20 
0.925
 40 
0.016
 0 
LINE
 8 
0
 62 
 7 
 10 
0.935
 20 
1.04
 11 
0.935
 21 
1.084
 0 
LINE
 8 
0
 62 
 7 
 10 
0.935
 20 
1.084
 11 
0.865
 21 
1.084
 0 
LINE
 8 
0
 62 
 7 
 10 
0.774
 20 
0.272
 11 
0.872
 21 
0.272
 0 
LINE
 8 
0
 62 
 7 
 10 
0.853
 20 
0.272
 11 
0.853
 21 
0.378
 0 
LINE
 8 
0
 62 
 7 
 10 
0.872
 20 
0.378
 11 
0.774
 21 
0.378
 0 
LINE
 8 
0
 62 
 7 
 10 
0.702
 20 
0.272
 11 
0.623
 21 
0.272
 0 
LINE
 8 
0
 62 
 7 
 10 
0.623
 20 
0.272
 11 
0.623
 21 
0.378
 0 
LINE
 8 
0
 62 
 7 
 10 
0.623
 20 
0.378
 11 
0.702
 21 
0.378
 0 
LINE
 8 
0
 62 
 7 
 10 
0.864
 20 
0.276
 11 
0.864
 21 
0.376
 0 
LINE
 8 
0
 62 
 7 
 10 
0.872
 20 
0.274
 11 
0.872
 21 
0.374
 0 
LINE
 8 
0
 62 
 7 
 10 
0.642
 20 
0.43
 11 
0.661
 21 
0.43
 0 
LINE
 8 
0
 62 
 7 
 10 
0.661
 20 
0.43
 11 
0.667
 21 
0.424
 0 
LINE
 8 
0
 62 
 7 
 10 
0.667
 20 
0.424
 11 
0.667
 21 
0.398
 0 
LINE
 8 
0
 62 
 7 
 10 
0.667
 20 
0.398
 11 
0.661
 21 
0.392
 0 
LINE
 8 
0
 62 
 7 
 10 
0.661
 20 
0.392
 11 
0.642
 21 
0.392
 0 
LINE
 8 
0
 62 
 7 
 10 
0.648
 20 
0.43
 11 
0.648
 21 
0.392
 0 
LINE
 8 
0
 62 
 7 
 10 
0.686
 20 
0.424
 11 
0.693
 21 
0.43
 0 
LINE
 8 
0
 62 
 7 
 10 
0.693
 20 
0.43
 11 
0.693
 21 
0.392
 0 
LINE
 8 
0
 62 
 7 
 10 
0.686
 20 
0.392
 11 
0.699
 21 
0.392
 0 
LINE
 8 
0
 62 
 7 
 10 
0.726
 20 
0.178
 11 
0.628
 21 
0.178
 0 
LINE
 8 
0
 62 
 7 
 10 
0.647
 20 
0.178
 11 
0.647
 21 
0.072
 0 
LINE
 8 
0
 62 
 7 
 10 
0.628
 20 
0.072
 11 
0.726
 21 
0.072
 0 
LINE
 8 
0
 62 
 7 
 10 
0.798
 20 
0.178
 11 
0.877
 21 
0.178
 0 
LINE
 8 
0
 62 
 7 
 10 
0.877
 20 
0.178
 11 
0.877
 21 
0.072
 0 
LINE
 8 
0
 62 
 7 
 10 
0.6
 20 
0.775
 11 
0.45
 21 
0.775
 0 
LINE
 8 
0
 62 
 7 
 10 
0.877
 20 
0.072
 11 
0.798
 21 
0.072
 0 
LINE
 8 
0
 62 
 7 
 10 
0.636
 20 
0.174
 11 
0.636
 21 
0.074
 0 
LINE
 8 
0
 62 
 7 
 10 
0.628
 20 
0.176
 11 
0.628
 21 
0.076
 0 
LINE
 8 
0
 62 
 7 
 10 
0.638
 20 
0.229
 11 
0.657
 21 
0.229
 0 
LINE
 8 
0
 62 
 7 
 10 
0.657
 20 
0.229
 11 
0.663
 21 
0.223
 0 
LINE
 8 
0
 62 
 7 
 10 
0.663
 20 
0.223
 11 
0.663
 21 
0.197
 0 
LINE
 8 
0
 62 
 7 
 10 
0.663
 20 
0.197
 11 
0.657
 21 
0.191
 0 
LINE
 8 
0
 62 
 7 
 10 
0.657
 20 
0.191
 11 
0.638
 21 
0.191
 0 
LINE
 8 
0
 62 
 7 
 10 
0.644
 20 
0.229
 11 
0.644
 21 
0.191
 0 
LINE
 8 
0
 62 
 7 
 10 
0.676
 20 
0.223
 11 
0.682
 21 
0.229
 0 
LINE
 8 
0
 62 
 7 
 10 
0.682
 20 
0.229
 11 
0.695
 21 
0.229
 0 
LINE
 8 
0
 62 
 7 
 10 
0.695
 20 
0.229
 11 
0.701
 21 
0.223
 0 
LINE
 8 
0
 62 
 7 
 10 
0.701
 20 
0.223
 11 
0.701
 21 
0.216
 0 
LINE
 8 
0
 62 
 7 
 10 
0.701
 20 
0.216
 11 
0.695
 21 
0.21
 0 
LINE
 8 
0
 62 
 7 
 10 
0.695
 20 
0.21
 11 
0.682
 21 
0.21
 0 
LINE
 8 
0
 62 
 7 
 10 
0.682
 20 
0.21
 11 
0.676
 21 
0.204
 0 
LINE
 8 
0
 62 
 7 
 10 
0.676
 20 
0.204
 11 
0.676
 21 
0.191
 0 
LINE
 8 
0
 62 
 7 
 10 
0.676
 20 
0.191
 11 
0.701
 21 
0.191
 0 
LINE
 8 
0
 62 
 7 
 10 
0.362
 20 
0.325
 11 
0.362
 21 
0.125
 0 
LINE
 8 
0
 62 
 7 
 10 
0.258
 20 
0.425
 11 
0.283
 21 
0.425
 0 
LINE
 8 
0
 62 
 7 
 10 
0.283
 20 
0.425
 11 
0.283
 21 
0.383
 0 
LINE
 8 
0
 62 
 7 
 10 
0.283
 20 
0.383
 11 
0.275
 21 
0.375
 0 
LINE
 8 
0
 62 
 7 
 10 
0.275
 20 
0.375
 11 
0.258
 21 
0.375
 0 
LINE
 8 
0
 62 
 7 
 10 
0.258
 20 
0.375
 11 
0.25
 21 
0.383
 0 
LINE
 8 
0
 62 
 7 
 10 
0.308
 20 
0.417
 11 
0.317
 21 
0.425
 0 
LINE
 8 
0
 62 
 7 
 10 
0.317
 20 
0.425
 11 
0.317
 21 
0.375
 0 
LINE
 8 
0
 62 
 7 
 10 
0.308
 20 
0.375
 11 
0.325
 21 
0.375
 0 
CIRCLE
 8 
0
 62 
 7 
 10 
0.15
 20 
1.1
 40 
0.062
 0 
CIRCLE
 8 
0
 62 
 7 
 10 
1.825
 20 
1.1
 40 
0.062
 0 
CIRCLE
 8 
0
 62 
 7 
 10 
0.15
 20 
0.15
 40 
0.062
 0 
CIRCLE
 8 
0
 62 
 7 
 10 
1.825
 20 
0.15
 40 
0.062
 0 
LINE
 8 
0
 62 
 7 
 10 
0.45
 20 
0.575
 11 
0.45
 21 
0.775
 0 
LINE
 8 
0
 62 
 7 
 10 
0.45
 20 
0.575
 11 
0.775
 21 
0.575
 0 
LINE
 8 
0
 62 
 7 
 10 
0.775
 20 
0.575
 11 
0.775
 21 
0.775
 0 
LINE
 8 
0
 62 
 7 
 10 
0.775
 20 
0.775
 11 
0.625
 21 
0.775
 0 
LINE
 8 
0
 62 
 7 
 10 
0.625
 20 
0.77
 11 
0.625
 21 
0.744
 0 
LINE
 8 
0
 62 
 7 
 10 
0.625
 20 
0.744
 11 
0.599
 21 
0.744
 0 
LINE
 8 
0
 62 
 7 
 10 
0.599
 20 
0.744
 11 
0.599
 21 
0.77
 0 
LINE
 8 
0
 62 
 7 
 10 
0.698
 20 
0.562
 11 
0.698
 21 
0.53
 0 
LINE
 8 
0
 62 
 7 
 10 
0.698
 20 
0.53
 11 
0.704
 21 
0.524
 0 
LINE
 8 
0
 62 
 7 
 10 
0.704
 20 
0.524
 11 
0.717
 21 
0.524
 0 
LINE
 8 
0
 62 
 7 
 10 
0.717
 20 
0.524
 11 
0.723
 21 
0.53
 0 
LINE
 8 
0
 62 
 7 
 10 
0.723
 20 
0.53
 11 
0.723
 21 
0.562
 0 
LINE
 8 
0
 62 
 7 
 10 
0.742
 20 
0.556
 11 
0.749
 21 
0.562
 0 
LINE
 8 
0
 62 
 7 
 10 
0.749
 20 
0.562
 11 
0.749
 21 
0.524
 0 
LINE
 8 
0
 62 
 7 
 10 
0.742
 20 
0.524
 11 
0.755
 21 
0.524
 0 
LINE
 8 
0
 62 
 7 
 10 
0.29
 20 
0.56
 11 
0.29
 21 
0.516
 0 
LINE
 8 
0
 62 
 7 
 10 
0.29
 20 
0.516
 11 
0.36
 21 
0.516
 0 
LINE
 8 
0
 62 
 7 
 10 
0.36
 20 
0.516
 11 
0.36
 21 
0.56
 0 
LINE
 8 
0
 62 
 7 
 10 
0.29
 20 
0.596
 11 
0.29
 21 
0.64
 0 
LINE
 8 
0
 62 
 7 
 10 
0.29
 20 
0.64
 11 
0.36
 21 
0.64
 0 
CIRCLE
 8 
0
 62 
 7 
 10 
0.625
 20 
0.5
 40 
0.016
 0 
CIRCLE
 8 
0
 62 
 7 
 10 
0.625
 20 
0.85
 40 
0.016
 0 
LINE
 8 
0
 62 
 7 
 10 
0.34
 20 
0.715
 11 
0.384
 21 
0.715
 0 
LINE
 8 
0
 62 
 7 
 10 
0.384
 20 
0.715
 11 
0.384
 21 
0.785
 0 
LINE
 8 
0
 62 
 7 
 10 
0.384
 20 
0.785
 11 
0.34
 21 
0.785
 0 
LINE
 8 
0
 62 
 7 
 10 
0.304
 20 
0.715
 11 
0.26
 21 
0.715
 0 
LINE
 8 
0
 62 
 7 
 10 
0.26
 20 
0.715
 11 
0.26
 21 
0.785
 0 
CIRCLE
 8 
0
 62 
 7 
 10 
0.825
 20 
0.85
 40 
0.016
 0 
LINE
 8 
0
 62 
 7 
 10 
0.515
 20 
0.815
 11 
0.559
 21 
0.815
 0 
LINE
 8 
0
 62 
 7 
 10 
0.559
 20 
0.815
 11 
0.559
 21 
0.885
 0 
LINE
 8 
0
 62 
 7 
 10 
0.559
 20 
0.885
 11 
0.515
 21 
0.885
 0 
LINE
 8 
0
 62 
 7 
 10 
0.479
 20 
0.815
 11 
0.435
 21 
0.815
 0 
LINE
 8 
0
 62 
 7 
 10 
0.435
 20 
0.815
 11 
0.435
 21 
0.885
 0 
LINE
 8 
0
 62 
 7 
 10 
0.865
 20 
1.084
 11 
0.865
 21 
1.04
 0 
CIRCLE
 8 
0
 62 
 7 
 10 
1.85
 20 
0.925
 40 
0.016
 0 
LINE
 8 
0
 62 
 7 
 10 
1.65
 20 
0.425
 11 
1.65
 21 
0.525
 0 
LINE
 8 
0
 62 
 7 
 10 
1.625
 20 
0.575
 11 
1.375
 21 
0.575
 0 
LINE
 8 
0
 62 
 7 
 10 
1.35
 20 
0.525
 11 
1.35
 21 
0.425
 0 
LINE
 8 
0
 62 
 7 
 10 
1.65
 20 
0.175
 11 
1.65
 21 
0.05
 0 
LINE
 8 
0
 62 
 7 
 10 
1.625
 20 
0.025
 11 
1.375
 21 
0.025
 0 
LINE
 8 
0
 62 
 7 
 10 
1.35
 20 
0.05
 11 
1.35
 21 
0.15
 0 
LINE
 8 
0
 62 
 7 
 10 
1.653
 20 
0.536
 11 
1.653
 21 
0.586
 0 
LINE
 8 
0
 62 
 7 
 10 
1.653
 20 
0.586
 11 
1.678
 21 
0.586
 0 
LINE
 8 
0
 62 
 7 
 10 
1.678
 20 
0.586
 11 
1.686
 21 
0.578
 0 
LINE
 8 
0
 62 
 7 
 10 
1.686
 20 
0.578
 11 
1.686
 21 
0.569
 0 
LINE
 8 
0
 62 
 7 
 10 
1.686
 20 
0.569
 11 
1.678
 21 
0.561
 0 
LINE
 8 
0
 62 
 7 
 10 
1.678
 20 
0.561
 11 
1.653
 21 
0.561
 0 
LINE
 8 
0
 62 
 7 
 10 
1.661
 20 
0.561
 11 
1.686
 21 
0.536
 0 
LINE
 8 
0
 62 
 7 
 10 
1.728
 20 
0.586
 11 
1.72
 21 
0.586
 0 
LINE
 8 
0
 62 
 7 
 10 
1.72
 20 
0.586
 11 
1.703
 21 
0.569
 0 
LINE
 8 
0
 62 
 7 
 10 
1.703
 20 
0.569
 11 
1.703
 21 
0.544
 0 
LINE
 8 
0
 62 
 7 
 10 
1.703
 20 
0.544
 11 
1.711
 21 
0.536
 0 
LINE
 8 
0
 62 
 7 
 10 
1.711
 20 
0.536
 11 
1.728
 21 
0.536
 0 
LINE
 8 
0
 62 
 7 
 10 
1.728
 20 
0.536
 11 
1.736
 21 
0.544
 0 
LINE
 8 
0
 62 
 7 
 10 
1.736
 20 
0.544
 11 
1.736
 21 
0.553
 0 
LINE
 8 
0
 62 
 7 
 10 
1.736
 20 
0.553
 11 
1.728
 21 
0.561
 0 
LINE
 8 
0
 62 
 7 
 10 
1.728
 20 
0.561
 11 
1.711
 21 
0.561
 0 
LINE
 8 
0
 62 
 7 
 10 
1.711
 20 
0.561
 11 
1.703
 21 
0.553
 0 
LINE
 8 
0
 62 
 7 
 10 
0.935
 20 
1.004
 11 
0.935
 21 
0.96
 0 
LINE
 8 
0
 62 
 7 
 10 
0.935
 20 
0.96
 11 
0.865
 21 
0.96
 0 
LINE
 8 
0
 62 
 7 
 10 
0.865
 20 
0.96
 11 
0.865
 21 
1.004
 0 
LINE
 8 
0
 62 
 7 
 10 
0.926
 20 
1.118
 11 
0.926
 21 
1.156
 0 
LINE
 8 
0
 62 
 7 
 10 
0.926
 20 
1.156
 11 
0.945
 21 
1.156
 0 
LINE
 8 
0
 62 
 7 
 10 
0.945
 20 
1.156
 11 
0.951
 21 
1.15
 0 
LINE
 8 
0
 62 
 7 
 10 
0.951
 20 
1.15
 11 
0.951
 21 
1.143
 0 
LINE
 8 
0
 62 
 7 
 10 
0.951
 20 
1.143
 11 
0.945
 21 
1.137
 0 
LINE
 8 
0
 62 
 7 
 10 
0.945
 20 
1.137
 11 
0.926
 21 
1.137
 0 
LINE
 8 
0
 62 
 7 
 10 
0.932
 20 
1.137
 11 
0.951
 21 
1.118
 0 
LINE
 8 
0
 62 
 7 
 10 
0.964
 20 
1.15
 11 
0.964
 21 
1.156
 0 
LINE
 8 
0
 62 
 7 
 10 
0.964
 20 
1.156
 11 
0.989
 21 
1.156
 0 
LINE
 8 
0
 62 
 7 
 10 
0.989
 20 
1.156
 11 
0.989
 21 
1.15
 0 
LINE
 8 
0
 62 
 7 
 10 
0.989
 20 
1.15
 11 
0.97
 21 
1.131
 0 
LINE
 8 
0
 62 
 7 
 10 
0.97
 20 
1.131
 11 
0.97
 21 
1.118
 0 
LINE
 8 
0
 62 
 7 
 10 
0.467
 20 
1.105
 11 
0.509
 21 
1.105
 0 
LINE
 8 
0
 62 
 7 
 10 
0.509
 20 
1.105
 11 
0.509
 21 
1.045
 0 
LINE
 8 
0
 62 
 7 
 10 
0.008
 20 
0.35
 11 
0.025
 21 
0.35
 0 
LINE
 8 
0
 62 
 7 
 10 
0.008
 20 
0.3
 11 
0.025
 21 
0.3
 0 
LINE
 8 
0
 62 
 7 
 10 
0.017
 20 
0.35
 11 
0.017
 21 
0.3
 0 
LINE
 8 
0
 62 
 7 
 10 
0.05
 20 
0.3
 11 
0.05
 21 
0.35
 0 
LINE
 8 
0
 62 
 7 
 10 
0.05
 20 
0.35
 11 
0.083
 21 
0.317
 0 
LINE
 8 
0
 62 
 7 
 10 
0.083
 20 
0.35
 11 
0.083
 21 
0.3
 0 
LINE
 8 
0
 62 
 7 
 10 
1.749
 20 
0.394
 11 
1.741
 21 
0.402
 0 
LINE
 8 
0
 62 
 7 
 10 
1.741
 20 
0.402
 11 
1.727
 21 
0.402
 0 
LINE
 8 
0
 62 
 7 
 10 
1.727
 20 
0.402
 11 
1.719
 21 
0.394
 0 
LINE
 8 
0
 62 
 7 
 10 
1.719
 20 
0.394
 11 
1.719
 21 
0.364
 0 
LINE
 8 
0
 62 
 7 
 10 
1.719
 20 
0.364
 11 
1.727
 21 
0.357
 0 
LINE
 8 
0
 62 
 7 
 10 
1.727
 20 
0.357
 11 
1.741
 21 
0.357
 0 
LINE
 8 
0
 62 
 7 
 10 
1.741
 20 
0.357
 11 
1.749
 21 
0.364
 0 
LINE
 8 
0
 62 
 7 
 10 
1.749
 20 
0.364
 11 
1.749
 21 
0.394
 0 
LINE
 8 
0
 62 
 7 
 10 
1.764
 20 
0.402
 11 
1.764
 21 
0.364
 0 
LINE
 8 
0
 62 
 7 
 10 
1.764
 20 
0.364
 11 
1.771
 21 
0.357
 0 
LINE
 8 
0
 62 
 7 
 10 
1.771
 20 
0.357
 11 
1.787
 21 
0.357
 0 
LINE
 8 
0
 62 
 7 
 10 
1.787
 20 
0.357
 11 
1.794
 21 
0.364
 0 
LINE
 8 
0
 62 
 7 
 10 
1.794
 20 
0.364
 11 
1.794
 21 
0.402
 0 
LINE
 8 
0
 62 
 7 
 10 
1.809
 20 
0.402
 11 
1.839
 21 
0.402
 0 
LINE
 8 
0
 62 
 7 
 10 
1.824
 20 
0.402
 11 
1.824
 21 
0.357
 0 
LINE
 8 
0
 62 
 7 
 10 
0.262
 20 
0.333
 11 
0.262
 21 
0.299
 0 
LINE
 8 
0
 62 
 7 
 10 
0.245
 20 
0.316
 11 
0.278
 21 
0.316
 0 
LINE
 8 
0
 62 
 7 
 10 
0.295
 20 
0.341
 11 
0.295
 21 
0.316
 0 
LINE
 8 
0
 62 
 7 
 10 
0.295
 20 
0.316
 11 
0.312
 21 
0.299
 0 
LINE
 8 
0
 62 
 7 
 10 
0.312
 20 
0.299
 11 
0.328
 21 
0.316
 0 
LINE
 8 
0
 62 
 7 
 10 
0.328
 20 
0.316
 11 
0.328
 21 
0.341
 0 
LINE
 8 
0
 62 
 7 
 10 
0.312
 20 
0.299
 11 
0.312
 21 
0.291
 0 
LINE
 8 
0
 62 
 7 
 10 
0.254
 20 
0.048
 11 
0.287
 21 
0.048
 0 
LINE
 8 
0
 62 
 7 
 10 
0.304
 20 
0.073
 11 
0.304
 21 
0.048
 0 
LINE
 8 
0
 62 
 7 
 10 
0.304
 20 
0.048
 11 
0.321
 21 
0.031
 0 
LINE
 8 
0
 62 
 7 
 10 
0.321
 20 
0.031
 11 
0.337
 21 
0.048
 0 
LINE
 8 
0
 62 
 7 
 10 
0.337
 20 
0.048
 11 
0.337
 21 
0.073
 0 
LINE
 8 
0
 62 
 7 
 10 
0.321
 20 
0.031
 11 
0.321
 21 
0.023
 0 
LINE
 8 
0
 62 
 7 
 10 
1.083
 20 
1.173
 11 
1.083
 21 
1.198
 0 
LINE
 8 
0
 62 
 7 
 10 
1.083
 20 
1.198
 11 
1.096
 21 
1.211
 0 
LINE
 8 
0
 62 
 7 
 10 
1.096
 20 
1.211
 11 
1.108
 21 
1.198
 0 
LINE
 8 
0
 62 
 7 
 10 
1.108
 20 
1.198
 11 
1.108
 21 
1.173
 0 
LINE
 8 
0
 62 
 7 
 10 
1.083
 20 
1.186
 11 
1.108
 21 
1.186
 0 
LINE
 8 
0
 62 
 7 
 10 
1.146
 20 
1.205
 11 
1.14
 21 
1.211
 0 
LINE
 8 
0
 62 
 7 
 10 
1.14
 20 
1.211
 11 
1.127
 21 
1.211
 0 
LINE
 8 
0
 62 
 7 
 10 
1.127
 20 
1.211
 11 
1.121
 21 
1.205
 0 
LINE
 8 
0
 62 
 7 
 10 
1.121
 20 
1.205
 11 
1.121
 21 
1.198
 0 
LINE
 8 
0
 62 
 7 
 10 
1.121
 20 
1.198
 11 
1.127
 21 
1.192
 0 
LINE
 8 
0
 62 
 7 
 10 
1.127
 20 
1.192
 11 
1.14
 21 
1.192
 0 
LINE
 8 
0
 62 
 7 
 10 
1.14
 20 
1.192
 11 
1.146
 21 
1.186
 0 
LINE
 8 
0
 62 
 7 
 10 
1.146
 20 
1.186
 11 
1.146
 21 
1.179
 0 
LINE
 8 
0
 62 
 7 
 10 
1.146
 20 
1.179
 11 
1.14
 21 
1.173
 0 
LINE
 8 
0
 62 
 7 
 10 
1.14
 20 
1.173
 11 
1.127
 21 
1.173
 0 
LINE
 8 
0
 62 
 7 
 10 
1.127
 20 
1.173
 11 
1.121
 21 
1.179
 0 
LINE
 8 
0
 62 
 7 
 10 
1.159
 20 
1.173
 11 
1.159
 21 
1.211
 0 
LINE
 8 
0
 62 
 7 
 10 
1.159
 20 
1.211
 11 
1.178
 21 
1.211
 0 
LINE
 8 
0
 62 
 7 
 10 
1.178
 20 
1.211
 11 
1.184
 21 
1.205
 0 
LINE
 8 
0
 62 
 7 
 10 
1.184
 20 
1.205
 11 
1.184
 21 
1.198
 0 
LINE
 8 
0
 62 
 7 
 10 
1.184
 20 
1.198
 11 
1.178
 21 
1.192
 0 
LINE
 8 
0
 62 
 7 
 10 
1.178
 20 
1.192
 11 
1.159
 21 
1.192
 0 
LINE
 8 
0
 62 
 7 
 10 
1.197
 20 
1.192
 11 
1.222
 21 
1.192
 0 
LINE
 8 
0
 62 
 7 
 10 
1.26
 20 
1.205
 11 
1.254
 21 
1.211
 0 
LINE
 8 
0
 62 
 7 
 10 
1.254
 20 
1.211
 11 
1.241
 21 
1.211
 0 
LINE
 8 
0
 62 
 7 
 10 
1.241
 20 
1.211
 11 
1.235
 21 
1.205
 0 
LINE
 8 
0
 62 
 7 
 10 
1.235
 20 
1.205
 11 
1.235
 21 
1.198
 0 
LINE
 8 
0
 62 
 7 
 10 
1.235
 20 
1.198
 11 
1.241
 21 
1.192
 0 
LINE
 8 
0
 62 
 7 
 10 
1.241
 20 
1.192
 11 
1.254
 21 
1.192
 0 
LINE
 8 
0
 62 
 7 
 10 
1.254
 20 
1.192
 11 
1.26
 21 
1.186
 0 
LINE
 8 
0
 62 
 7 
 10 
1.26
 20 
1.186
 11 
1.26
 21 
1.179
 0 
LINE
 8 
0
 62 
 7 
 10 
1.26
 20 
1.179
 11 
1.254
 21 
1.173
 0 
LINE
 8 
0
 62 
 7 
 10 
1.254
 20 
1.173
 11 
1.241
 21 
1.173
 0 
LINE
 8 
0
 62 
 7 
 10 
1.241
 20 
1.173
 11 
1.235
 21 
1.179
 0 
LINE
 8 
0
 62 
 7 
 10 
1.273
 20 
1.211
 11 
1.292
 21 
1.211
 0 
LINE
 8 
0
 62 
 7 
 10 
1.292
 20 
1.211
 11 
1.298
 21 
1.205
 0 
LINE
 8 
0
 62 
 7 
 10 
1.298
 20 
1.205
 11 
1.298
 21 
1.198
 0 
LINE
 8 
0
 62 
 7 
 10 
1.298
 20 
1.198
 11 
1.292
 21 
1.192
 0 
LINE
 8 
0
 62 
 7 
 10 
1.292
 20 
1.192
 11 
1.298
 21 
1.186
 0 
LINE
 8 
0
 62 
 7 
 10 
1.298
 20 
1.186
 11 
1.298
 21 
1.179
 0 
LINE
 8 
0
 62 
 7 
 10 
1.298
 20 
1.179
 11 
1.292
 21 
1.173
 0 
LINE
 8 
0
 62 
 7 
 10 
1.292
 20 
1.173
 11 
1.273
 21 
1.173
 0 
LINE
 8 
0
 62 
 7 
 10 
1.279
 20 
1.211
 11 
1.279
 21 
1.173
 0 
LINE
 8 
0
 62 
 7 
 10 
1.279
 20 
1.192
 11 
1.292
 21 
1.192
 0 
LINE
 8 
0
 62 
 7 
 10 
1.311
 20 
1.173
 11 
1.311
 21 
1.211
 0 
LINE
 8 
0
 62 
 7 
 10 
1.311
 20 
1.211
 11 
1.324
 21 
1.198
 0 
LINE
 8 
0
 62 
 7 
 10 
1.324
 20 
1.198
 11 
1.324
 21 
1.192
 0 
LINE
 8 
0
 62 
 7 
 10 
1.324
 20 
1.198
 11 
1.336
 21 
1.211
 0 
LINE
 8 
0
 62 
 7 
 10 
1.336
 20 
1.211
 11 
1.336
 21 
1.173
 0 
LINE
 8 
0
 62 
 7 
 10 
1.349
 20 
1.192
 11 
1.374
 21 
1.192
 0 
LINE
 8 
0
 62 
 7 
 10 
1.387
 20 
1.179
 11 
1.387
 21 
1.205
 0 
LINE
 8 
0
 62 
 7 
 10 
1.387
 20 
1.205
 11 
1.393
 21 
1.211
 0 
LINE
 8 
0
 62 
 7 
 10 
1.393
 20 
1.211
 11 
1.406
 21 
1.211
 0 
LINE
 8 
0
 62 
 7 
 10 
1.406
 20 
1.211
 11 
1.412
 21 
1.205
 0 
LINE
 8 
0
 62 
 7 
 10 
1.412
 20 
1.205
 11 
1.412
 21 
1.179
 0 
LINE
 8 
0
 62 
 7 
 10 
1.412
 20 
1.179
 11 
1.406
 21 
1.173
 0 
LINE
 8 
0
 62 
 7 
 10 
1.406
 20 
1.173
 11 
1.393
 21 
1.173
 0 
LINE
 8 
0
 62 
 7 
 10 
1.393
 20 
1.173
 11 
1.387
 21 
1.179
 0 
LINE
 8 
0
 62 
 7 
 10 
1.387
 20 
1.179
 11 
1.412
 21 
1.205
 0 
LINE
 8 
0
 62 
 7 
 10 
1.425
 20 
1.179
 11 
1.425
 21 
1.205
 0 
LINE
 8 
0
 62 
 7 
 10 
1.425
 20 
1.205
 11 
1.431
 21 
1.211
 0 
LINE
 8 
0
 62 
 7 
 10 
1.431
 20 
1.211
 11 
1.444
 21 
1.211
 0 
LINE
 8 
0
 62 
 7 
 10 
1.444
 20 
1.211
 11 
1.45
 21 
1.205
 0 
LINE
 8 
0
 62 
 7 
 10 
1.45
 20 
1.205
 11 
1.45
 21 
1.179
 0 
LINE
 8 
0
 62 
 7 
 10 
1.45
 20 
1.179
 11 
1.444
 21 
1.173
 0 
LINE
 8 
0
 62 
 7 
 10 
1.444
 20 
1.173
 11 
1.431
 21 
1.173
 0 
LINE
 8 
0
 62 
 7 
 10 
1.431
 20 
1.173
 11 
1.425
 21 
1.179
 0 
LINE
 8 
0
 62 
 7 
 10 
1.425
 20 
1.179
 11 
1.45
 21 
1.205
 0 
LINE
 8 
0
 62 
 7 
 10 
1.501
 20 
1.173
 11 
1.501
 21 
1.211
 0 
LINE
 8 
0
 62 
 7 
 10 
1.501
 20 
1.211
 11 
1.52
 21 
1.211
 0 
LINE
 8 
0
 62 
 7 
 10 
1.52
 20 
1.211
 11 
1.526
 21 
1.205
 0 
LINE
 8 
0
 62 
 7 
 10 
1.526
 20 
1.205
 11 
1.526
 21 
1.198
 0 
LINE
 8 
0
 62 
 7 
 10 
1.526
 20 
1.198
 11 
1.52
 21 
1.192
 0 
LINE
 8 
0
 62 
 7 
 10 
1.52
 20 
1.192
 11 
1.501
 21 
1.192
 0 
LINE
 8 
0
 62 
 7 
 10 
1.507
 20 
1.192
 11 
1.526
 21 
1.173
 0 
LINE
 8 
0
 62 
 7 
 10 
1.539
 20 
1.186
 11 
1.564
 21 
1.186
 0 
LINE
 8 
0
 62 
 7 
 10 
1.564
 20 
1.186
 11 
1.564
 21 
1.192
 0 
LINE
 8 
0
 62 
 7 
 10 
1.564
 20 
1.192
 11 
1.558
 21 
1.198
 0 
LINE
 8 
0
 62 
 7 
 10 
1.558
 20 
1.198
 11 
1.545
 21 
1.198
 0 
LINE
 8 
0
 62 
 7 
 10 
1.545
 20 
1.198
 11 
1.539
 21 
1.192
 0 
LINE
 8 
0
 62 
 7 
 10 
1.539
 20 
1.192
 11 
1.539
 21 
1.179
 0 
LINE
 8 
0
 62 
 7 
 10 
1.539
 20 
1.179
 11 
1.545
 21 
1.173
 0 
LINE
 8 
0
 62 
 7 
 10 
1.545
 20 
1.173
 11 
1.558
 21 
1.173
 0 
LINE
 8 
0
 62 
 7 
 10 
1.577
 20 
1.198
 11 
1.577
 21 
1.186
 0 
LINE
 8 
0
 62 
 7 
 10 
1.577
 20 
1.186
 11 
1.59
 21 
1.173
 0 
LINE
 8 
0
 62 
 7 
 10 
1.59
 20 
1.173
 11 
1.602
 21 
1.186
 0 
LINE
 8 
0
 62 
 7 
 10 
1.602
 20 
1.186
 11 
1.602
 21 
1.198
 0 
LINE
 8 
0
 62 
 7 
 10 
1.678
 20 
1.211
 11 
1.653
 21 
1.211
 0 
LINE
 8 
0
 62 
 7 
 10 
1.653
 20 
1.211
 11 
1.653
 21 
1.173
 0 
LINE
 8 
0
 62 
 7 
 10 
1.653
 20 
1.173
 11 
1.678
 21 
1.173
 0 
LINE
 8 
0
 62 
 7 
 10 
1.653
 20 
1.192
 11 
1.672
 21 
1.192
 0 
LINE
 8 
0
 62 
 7 
 10 
0.509
 20 
1.045
 11 
0.467
 21 
1.045
 0 
LINE
 8 
0
 62 
 7 
 10 
0.433
 20 
1.105
 11 
0.391
 21 
1.105
 0 
LINE
 8 
0
 62 
 7 
 10 
0.391
 20 
1.105
 11 
0.391
 21 
1.045
 0 
LINE
 8 
0
 62 
 7 
 10 
0.391
 20 
1.045
 11 
0.433
 21 
1.045
 0 
LINE
 8 
0
 62 
 7 
 10 
0.762
 20 
0.437
 11 
0.795
 21 
0.437
 0 
LINE
 8 
0
 62 
 7 
 10 
0.812
 20 
0.462
 11 
0.812
 21 
0.437
 0 
LINE
 8 
0
 62 
 7 
 10 
0.812
 20 
0.437
 11 
0.829
 21 
0.42
 0 
LINE
 8 
0
 62 
 7 
 10 
0.829
 20 
0.42
 11 
0.845
 21 
0.437
 0 
LINE
 8 
0
 62 
 7 
 10 
0.845
 20 
0.437
 11 
0.845
 21 
0.462
 0 
LINE
 8 
0
 62 
 7 
 10 
0.829
 20 
0.42
 11 
0.829
 21 
0.412
 0 
LINE
 8 
0
 62 
 7 
 10 
1.02
 20 
0.455
 11 
1.02
 21 
0.421
 0 
LINE
 8 
0
 62 
 7 
 10 
1.003
 20 
0.438
 11 
1.036
 21 
0.438
 0 
LINE
 8 
0
 62 
 7 
 10 
1.053
 20 
0.463
 11 
1.053
 21 
0.438
 0 
LINE
 8 
0
 62 
 7 
 10 
1.053
 20 
0.438
 11 
1.07
 21 
0.421
 0 
LINE
 8 
0
 62 
 7 
 10 
1.07
 20 
0.421
 11 
1.086
 21 
0.438
 0 
LINE
 8 
0
 62 
 7 
 10 
1.086
 20 
0.438
 11 
1.086
 21 
0.463
 0 
LINE
 8 
0
 62 
 7 
 10 
1.07
 20 
0.421
 11 
1.07
 21 
0.413
 0 
LINE
 8 
0
 62 
 7 
 10 
0.425
 20 
1.152
 11 
0.419
 21 
1.158
 0 
LINE
 8 
0
 62 
 7 
 10 
0.419
 20 
1.158
 11 
0.406
 21 
1.158
 0 
LINE
 8 
0
 62 
 7 
 10 
0.406
 20 
1.158
 11 
0.4
 21 
1.152
 0 
LINE
 8 
0
 62 
 7 
 10 
0.4
 20 
1.152
 11 
0.4
 21 
1.126
 0 
LINE
 8 
0
 62 
 7 
 10 
0.4
 20 
1.126
 11 
0.406
 21 
1.12
 0 
LINE
 8 
0
 62 
 7 
 10 
0.406
 20 
1.12
 11 
0.419
 21 
1.12
 0 
LINE
 8 
0
 62 
 7 
 10 
0.419
 20 
1.12
 11 
0.425
 21 
1.126
 0 
LINE
 8 
0
 62 
 7 
 10 
0.438
 20 
1.152
 11 
0.438
 21 
1.158
 0 
LINE
 8 
0
 62 
 7 
 10 
0.438
 20 
1.158
 11 
0.463
 21 
1.158
 0 
LINE
 8 
0
 62 
 7 
 10 
0.463
 20 
1.158
 11 
0.463
 21 
1.152
 0 
LINE
 8 
0
 62 
 7 
 10 
0.463
 20 
1.152
 11 
0.444
 21 
1.133
 0 
LINE
 8 
0
 62 
 7 
 10 
0.444
 20 
1.133
 11 
0.444
 21 
1.12
 0 
CIRCLE
 8 
0
 62 
 7 
 10 
1.85
 20 
0.35
 40 
0.016
 0 
LINE
 8 
0
 62 
 7 
 10 
0.435
 20 
1.01
 11 
0.479
 21 
1.01
 0 
LINE
 8 
0
 62 
 7 
 10 
0.35
 20 
0.987
 11 
0.35
 21 
1.025
 0 
LINE
 8 
0
 62 
 7 
 10 
0.35
 20 
1.025
 11 
0.369
 21 
1.025
 0 
LINE
 8 
0
 62 
 7 
 10 
0.369
 20 
1.025
 11 
0.375
 21 
1.019
 0 
LINE
 8 
0
 62 
 7 
 10 
0.375
 20 
1.019
 11 
0.375
 21 
1.012
 0 
LINE
 8 
0
 62 
 7 
 10 
0.375
 20 
1.012
 11 
0.369
 21 
1.006
 0 
LINE
 8 
0
 62 
 7 
 10 
0.369
 20 
1.006
 11 
0.35
 21 
1.006
 0 
LINE
 8 
0
 62 
 7 
 10 
0.356
 20 
1.006
 11 
0.375
 21 
0.987
 0 
LINE
 8 
0
 62 
 7 
 10 
0.388
 20 
1.019
 11 
0.394
 21 
1.025
 0 
LINE
 8 
0
 62 
 7 
 10 
0.394
 20 
1.025
 11 
0.407
 21 
1.025
 0 
LINE
 8 
0
 62 
 7 
 10 
0.407
 20 
1.025
 11 
0.413
 21 
1.019
 0 
LINE
 8 
0
 62 
 7 
 10 
0.413
 20 
1.019
 11 
0.413
 21 
1.012
 0 
LINE
 8 
0
 62 
 7 
 10 
0.413
 20 
1.012
 11 
0.407
 21 
1.006
 0 
LINE
 8 
0
 62 
 7 
 10 
0.407
 20 
1.006
 11 
0.401
 21 
1.006
 0 
LINE
 8 
0
 62 
 7 
 10 
0.407
 20 
1.006
 11 
0.413
 21 
1.0
 0 
LINE
 8 
0
 62 
 7 
 10 
0.413
 20 
1.0
 11 
0.413
 21 
0.993
 0 
LINE
 8 
0
 62 
 7 
 10 
0.413
 20 
0.993
 11 
0.407
 21 
0.987
 0 
LINE
 8 
0
 62 
 7 
 10 
0.407
 20 
0.987
 11 
0.394
 21 
0.987
 0 
LINE
 8 
0
 62 
 7 
 10 
0.394
 20 
0.987
 11 
0.388
 21 
0.993
 0 
LINE
 8 
0
 62 
 7 
 10 
0.435
 20 
0.885
 11 
0.479
 21 
0.885
 0 
LINE
 8 
0
 62 
 7 
 10 
0.57
 20 
0.791
 11 
0.57
 21 
0.829
 0 
LINE
 8 
0
 62 
 7 
 10 
0.57
 20 
0.829
 11 
0.589
 21 
0.829
 0 
LINE
 8 
0
 62 
 7 
 10 
0.589
 20 
0.829
 11 
0.595
 21 
0.823
 0 
LINE
 8 
0
 62 
 7 
 10 
0.595
 20 
0.823
 11 
0.595
 21 
0.816
 0 
LINE
 8 
0
 62 
 7 
 10 
0.595
 20 
0.816
 11 
0.589
 21 
0.81
 0 
LINE
 8 
0
 62 
 7 
 10 
0.589
 20 
0.81
 11 
0.57
 21 
0.81
 0 
LINE
 8 
0
 62 
 7 
 10 
0.576
 20 
0.81
 11 
0.595
 21 
0.791
 0 
LINE
 8 
0
 62 
 7 
 10 
0.633
 20 
0.804
 11 
0.608
 21 
0.804
 0 
LINE
 8 
0
 62 
 7 
 10 
0.608
 20 
0.804
 11 
0.608
 21 
0.81
 0 
LINE
 8 
0
 62 
 7 
 10 
0.608
 20 
0.81
 11 
0.627
 21 
0.829
 0 
LINE
 8 
0
 62 
 7 
 10 
0.627
 20 
0.829
 11 
0.627
 21 
0.791
 0 
LINE
 8 
0
 62 
 7 
 10 
0.36
 20 
0.64
 11 
0.36
 21 
0.596
 0 
LINE
 8 
0
 62 
 7 
 10 
0.74
 20 
1.11
 11 
0.784
 21 
1.11
 0 
LINE
 8 
0
 62 
 7 
 10 
0.784
 20 
1.11
 11 
0.784
 21 
1.04
 0 
LINE
 8 
0
 62 
 7 
 10 
0.784
 20 
1.04
 11 
0.74
 21 
1.04
 0 
LINE
 8 
0
 62 
 7 
 10 
0.704
 20 
1.11
 11 
0.66
 21 
1.11
 0 
LINE
 8 
0
 62 
 7 
 10 
0.66
 20 
1.11
 11 
0.66
 21 
1.04
 0 
LINE
 8 
0
 62 
 7 
 10 
0.333
 20 
0.832
 11 
0.283
 21 
0.832
 0 
LINE
 8 
0
 62 
 7 
 10 
0.283
 20 
0.832
 11 
0.283
 21 
0.853
 0 
LINE
 8 
0
 62 
 7 
 10 
0.333
 20 
0.943
 11 
0.283
 21 
0.943
 0 
LINE
 8 
0
 62 
 7 
 10 
0.375
 20 
0.537
 11 
0.375
 21 
0.575
 0 
LINE
 8 
0
 62 
 7 
 10 
0.375
 20 
0.575
 11 
0.394
 21 
0.575
 0 
LINE
 8 
0
 62 
 7 
 10 
0.394
 20 
0.575
 11 
0.4
 21 
0.569
 0 
LINE
 8 
0
 62 
 7 
 10 
0.4
 20 
0.569
 11 
0.4
 21 
0.562
 0 
LINE
 8 
0
 62 
 7 
 10 
0.4
 20 
0.562
 11 
0.394
 21 
0.556
 0 
LINE
 8 
0
 62 
 7 
 10 
0.394
 20 
0.556
 11 
0.375
 21 
0.556
 0 
LINE
 8 
0
 62 
 7 
 10 
0.381
 20 
0.556
 11 
0.4
 21 
0.537
 0 
LINE
 8 
0
 62 
 7 
 10 
0.419
 20 
0.569
 11 
0.426
 21 
0.575
 0 
LINE
 8 
0
 62 
 7 
 10 
0.426
 20 
0.575
 11 
0.426
 21 
0.537
 0 
LINE
 8 
0
 62 
 7 
 10 
0.419
 20 
0.537
 11 
0.432
 21 
0.537
 0 
LINE
 8 
0
 62 
 7 
 10 
0.031
 20 
0.925
 11 
0.05
 21 
0.925
 0 
LINE
 8 
0
 62 
 7 
 10 
0.05
 20 
0.925
 11 
0.05
 21 
0.893
 0 
LINE
 8 
0
 62 
 7 
 10 
0.05
 20 
0.893
 11 
0.044
 21 
0.887
 0 
LINE
 8 
0
 62 
 7 
 10 
0.044
 20 
0.887
 11 
0.031
 21 
0.887
 0 
LINE
 8 
0
 62 
 7 
 10 
0.031
 20 
0.887
 11 
0.025
 21 
0.893
 0 
LINE
 8 
0
 62 
 7 
 10 
0.063
 20 
0.919
 11 
0.069
 21 
0.925
 0 
LINE
 8 
0
 62 
 7 
 10 
0.069
 20 
0.925
 11 
0.082
 21 
0.925
 0 
LINE
 8 
0
 62 
 7 
 10 
0.082
 20 
0.925
 11 
0.088
 21 
0.919
 0 
LINE
 8 
0
 62 
 7 
 10 
0.088
 20 
0.919
 11 
0.088
 21 
0.912
 0 
LINE
 8 
0
 62 
 7 
 10 
0.088
 20 
0.912
 11 
0.082
 21 
0.906
 0 
LINE
 8 
0
 62 
 7 
 10 
0.082
 20 
0.906
 11 
0.069
 21 
0.906
 0 
LINE
 8 
0
 62 
 7 
 10 
0.069
 20 
0.906
 11 
0.063
 21 
0.9
 0 
LINE
 8 
0
 62 
 7 
 10 
0.063
 20 
0.9
 11 
0.063
 21 
0.887
 0 
LINE
 8 
0
 62 
 7 
 10 
0.063
 20 
0.887
 11 
0.088
 21 
0.887
 0 
LINE
 8 
0
 62 
 7 
 10 
1.731
 20 
0.9
 11 
1.75
 21 
0.9
 0 
LINE
 8 
0
 62 
 7 
 10 
1.75
 20 
0.9
 11 
1.75
 21 
0.868
 0 
LINE
 8 
0
 62 
 7 
 10 
1.75
 20 
0.868
 11 
1.744
 21 
0.862
 0 
LINE
 8 
0
 62 
 7 
 10 
1.744
 20 
0.862
 11 
1.731
 21 
0.862
 0 
LINE
 8 
0
 62 
 7 
 10 
1.731
 20 
0.862
 11 
1.725
 21 
0.868
 0 
LINE
 8 
0
 62 
 7 
 10 
1.763
 20 
0.894
 11 
1.769
 21 
0.9
 0 
LINE
 8 
0
 62 
 7 
 10 
1.769
 20 
0.9
 11 
1.782
 21 
0.9
 0 
LINE
 8 
0
 62 
 7 
 10 
1.782
 20 
0.9
 11 
1.788
 21 
0.894
 0 
LINE
 8 
0
 62 
 7 
 10 
1.788
 20 
0.894
 11 
1.788
 21 
0.887
 0 
LINE
 8 
0
 62 
 7 
 10 
1.788
 20 
0.887
 11 
1.782
 21 
0.881
 0 
LINE
 8 
0
 62 
 7 
 10 
1.782
 20 
0.881
 11 
1.776
 21 
0.881
 0 
LINE
 8 
0
 62 
 7 
 10 
1.782
 20 
0.881
 11 
1.788
 21 
0.875
 0 
LINE
 8 
0
 62 
 7 
 10 
1.788
 20 
0.875
 11 
1.788
 21 
0.868
 0 
LINE
 8 
0
 62 
 7 
 10 
1.788
 20 
0.868
 11 
1.782
 21 
0.862
 0 
LINE
 8 
0
 62 
 7 
 10 
1.782
 20 
0.862
 11 
1.769
 21 
0.862
 0 
LINE
 8 
0
 62 
 7 
 10 
1.769
 20 
0.862
 11 
1.763
 21 
0.868
 0 
LINE
 8 
0
 62 
 7 
 10 
0.26
 20 
0.785
 11 
0.304
 21 
0.785
 0 
LINE
 8 
0
 62 
 7 
 10 
0.325
 20 
0.662
 11 
0.325
 21 
0.7
 0 
LINE
 8 
0
 62 
 7 
 10 
0.325
 20 
0.7
 11 
0.344
 21 
0.7
 0 
LINE
 8 
0
 62 
 7 
 10 
0.344
 20 
0.7
 11 
0.35
 21 
0.694
 0 
LINE
 8 
0
 62 
 7 
 10 
0.35
 20 
0.694
 11 
0.35
 21 
0.687
 0 
LINE
 8 
0
 62 
 7 
 10 
0.35
 20 
0.687
 11 
0.344
 21 
0.681
 0 
LINE
 8 
0
 62 
 7 
 10 
0.344
 20 
0.681
 11 
0.325
 21 
0.681
 0 
LINE
 8 
0
 62 
 7 
 10 
0.331
 20 
0.681
 11 
0.35
 21 
0.662
 0 
LINE
 8 
0
 62 
 7 
 10 
0.363
 20 
0.694
 11 
0.369
 21 
0.7
 0 
LINE
 8 
0
 62 
 7 
 10 
0.369
 20 
0.7
 11 
0.382
 21 
0.7
 0 
LINE
 8 
0
 62 
 7 
 10 
0.382
 20 
0.7
 11 
0.388
 21 
0.694
 0 
LINE
 8 
0
 62 
 7 
 10 
0.388
 20 
0.694
 11 
0.388
 21 
0.687
 0 
LINE
 8 
0
 62 
 7 
 10 
0.388
 20 
0.687
 11 
0.382
 21 
0.681
 0 
LINE
 8 
0
 62 
 7 
 10 
0.382
 20 
0.681
 11 
0.369
 21 
0.681
 0 
LINE
 8 
0
 62 
 7 
 10 
0.369
 20 
0.681
 11 
0.363
 21 
0.675
 0 
LINE
 8 
0
 62 
 7 
 10 
0.363
 20 
0.675
 11 
0.363
 21 
0.662
 0 
LINE
 8 
0
 62 
 7 
 10 
0.363
 20 
0.662
 11 
0.388
 21 
0.662
 0 
LINE
 8 
0
 62 
 7 
 10 
0.79
 20 
0.885
 11 
0.746
 21 
0.885
 0 
LINE
 8 
0
 62 
 7 
 10 
0.786
 20 
0.929
 11 
0.78
 21 
0.935
 0 
LINE
 8 
0
 62 
 7 
 10 
0.78
 20 
0.935
 11 
0.767
 21 
0.935
 0 
LINE
 8 
0
 62 
 7 
 10 
0.767
 20 
0.935
 11 
0.761
 21 
0.929
 0 
LINE
 8 
0
 62 
 7 
 10 
0.761
 20 
0.929
 11 
0.761
 21 
0.903
 0 
LINE
 8 
0
 62 
 7 
 10 
0.761
 20 
0.903
 11 
0.767
 21 
0.897
 0 
LINE
 8 
0
 62 
 7 
 10 
0.767
 20 
0.897
 11 
0.78
 21 
0.897
 0 
LINE
 8 
0
 62 
 7 
 10 
0.78
 20 
0.897
 11 
0.786
 21 
0.903
 0 
LINE
 8 
0
 62 
 7 
 10 
0.799
 20 
0.929
 11 
0.805
 21 
0.935
 0 
LINE
 8 
0
 62 
 7 
 10 
0.805
 20 
0.935
 11 
0.818
 21 
0.935
 0 
LINE
 8 
0
 62 
 7 
 10 
0.818
 20 
0.935
 11 
0.824
 21 
0.929
 0 
LINE
 8 
0
 62 
 7 
 10 
0.824
 20 
0.929
 11 
0.824
 21 
0.922
 0 
LINE
 8 
0
 62 
 7 
 10 
0.824
 20 
0.922
 11 
0.818
 21 
0.916
 0 
LINE
 8 
0
 62 
 7 
 10 
0.818
 20 
0.916
 11 
0.812
 21 
0.916
 0 
LINE
 8 
0
 62 
 7 
 10 
0.818
 20 
0.916
 11 
0.824
 21 
0.91
 0 
LINE
 8 
0
 62 
 7 
 10 
0.824
 20 
0.91
 11 
0.824
 21 
0.903
 0 
LINE
 8 
0
 62 
 7 
 10 
0.824
 20 
0.903
 11 
0.818
 21 
0.897
 0 
LINE
 8 
0
 62 
 7 
 10 
0.818
 20 
0.897
 11 
0.805
 21 
0.897
 0 
LINE
 8 
0
 62 
 7 
 10 
0.805
 20 
0.897
 11 
0.799
 21 
0.903
 0 
LINE
 8 
0
 62 
 7 
 10 
0.91
 20 
0.74
 11 
0.91
 21 
0.696
 0 
LINE
 8 
0
 62 
 7 
 10 
0.8
 20 
0.562
 11 
0.8
 21 
0.6
 0 
LINE
 8 
0
 62 
 7 
 10 
0.8
 20 
0.6
 11 
0.819
 21 
0.6
 0 
LINE
 8 
0
 62 
 7 
 10 
0.819
 20 
0.6
 11 
0.825
 21 
0.594
 0 
LINE
 8 
0
 62 
 7 
 10 
0.825
 20 
0.594
 11 
0.825
 21 
0.587
 0 
LINE
 8 
0
 62 
 7 
 10 
0.825
 20 
0.587
 11 
0.819
 21 
0.581
 0 
LINE
 8 
0
 62 
 7 
 10 
0.819
 20 
0.581
 11 
0.8
 21 
0.581
 0 
LINE
 8 
0
 62 
 7 
 10 
0.806
 20 
0.581
 11 
0.825
 21 
0.562
 0 
LINE
 8 
0
 62 
 7 
 10 
0.863
 20 
0.6
 11 
0.838
 21 
0.6
 0 
LINE
 8 
0
 62 
 7 
 10 
0.838
 20 
0.6
 11 
0.838
 21 
0.587
 0 
LINE
 8 
0
 62 
 7 
 10 
0.838
 20 
0.587
 11 
0.857
 21 
0.587
 0 
LINE
 8 
0
 62 
 7 
 10 
0.857
 20 
0.587
 11 
0.863
 21 
0.581
 0 
LINE
 8 
0
 62 
 7 
 10 
0.863
 20 
0.581
 11 
0.863
 21 
0.568
 0 
LINE
 8 
0
 62 
 7 
 10 
0.863
 20 
0.568
 11 
0.857
 21 
0.562
 0 
LINE
 8 
0
 62 
 7 
 10 
0.857
 20 
0.562
 11 
0.844
 21 
0.562
 0 
LINE
 8 
0
 62 
 7 
 10 
0.844
 20 
0.562
 11 
0.838
 21 
0.568
 0 
LINE
 8 
0
 62 
 7 
 10 
0.381
 20 
0.881
 11 
0.381
 21 
0.894
 0 
LINE
 8 
0
 62 
 7 
 10 
0.283
 20 
0.922
 11 
0.283
 21 
0.943
 0 
LINE
 8 
0
 62 
 7 
 10 
0.2
 20 
0.95
 11 
0.219
 21 
0.95
 0 
LINE
 8 
0
 62 
 7 
 10 
0.219
 20 
0.95
 11 
0.225
 21 
0.944
 0 
LINE
 8 
0
 62 
 7 
 10 
0.225
 20 
0.944
 11 
0.225
 21 
0.918
 0 
LINE
 8 
0
 62 
 7 
 10 
0.225
 20 
0.918
 11 
0.219
 21 
0.912
 0 
LINE
 8 
0
 62 
 7 
 10 
0.219
 20 
0.912
 11 
0.2
 21 
0.912
 0 
LINE
 8 
0
 62 
 7 
 10 
0.206
 20 
0.95
 11 
0.206
 21 
0.912
 0 
LINE
 8 
0
 62 
 7 
 10 
0.238
 20 
0.944
 11 
0.244
 21 
0.95
 0 
LINE
 8 
0
 62 
 7 
 10 
0.244
 20 
0.95
 11 
0.257
 21 
0.95
 0 
LINE
 8 
0
 62 
 7 
 10 
0.257
 20 
0.95
 11 
0.263
 21 
0.944
 0 
LINE
 8 
0
 62 
 7 
 10 
0.263
 20 
0.944
 11 
0.263
 21 
0.937
 0 
LINE
 8 
0
 62 
 7 
 10 
0.263
 20 
0.937
 11 
0.257
 21 
0.931
 0 
LINE
 8 
0
 62 
 7 
 10 
0.257
 20 
0.931
 11 
0.251
 21 
0.931
 0 
LINE
 8 
0
 62 
 7 
 10 
0.257
 20 
0.931
 11 
0.263
 21 
0.925
 0 
LINE
 8 
0
 62 
 7 
 10 
0.263
 20 
0.925
 11 
0.263
 21 
0.918
 0 
LINE
 8 
0
 62 
 7 
 10 
0.263
 20 
0.918
 11 
0.257
 21 
0.912
 0 
LINE
 8 
0
 62 
 7 
 10 
0.257
 20 
0.912
 11 
0.244
 21 
0.912
 0 
LINE
 8 
0
 62 
 7 
 10 
0.244
 20 
0.912
 11 
0.238
 21 
0.918
 0 
LINE
 8 
0
 62 
 7 
 10 
0.66
 20 
1.04
 11 
0.704
 21 
1.04
 0 
LINE
 8 
0
 62 
 7 
 10 
0.708
 20 
1.157
 11 
0.702
 21 
1.163
 0 
LINE
 8 
0
 62 
 7 
 10 
0.702
 20 
1.163
 11 
0.689
 21 
1.163
 0 
LINE
 8 
0
 62 
 7 
 10 
0.689
 20 
1.163
 11 
0.683
 21 
1.157
 0 
LINE
 8 
0
 62 
 7 
 10 
0.683
 20 
1.157
 11 
0.683
 21 
1.131
 0 
LINE
 8 
0
 62 
 7 
 10 
0.683
 20 
1.131
 11 
0.689
 21 
1.125
 0 
LINE
 8 
0
 62 
 7 
 10 
0.689
 20 
1.125
 11 
0.702
 21 
1.125
 0 
LINE
 8 
0
 62 
 7 
 10 
0.702
 20 
1.125
 11 
0.708
 21 
1.131
 0 
LINE
 8 
0
 62 
 7 
 10 
0.727
 20 
1.144
 11 
0.721
 21 
1.15
 0 
LINE
 8 
0
 62 
 7 
 10 
0.721
 20 
1.15
 11 
0.721
 21 
1.157
 0 
LINE
 8 
0
 62 
 7 
 10 
0.721
 20 
1.157
 11 
0.727
 21 
1.163
 0 
LINE
 8 
0
 62 
 7 
 10 
0.727
 20 
1.163
 11 
0.74
 21 
1.163
 0 
LINE
 8 
0
 62 
 7 
 10 
0.74
 20 
1.163
 11 
0.746
 21 
1.157
 0 
LINE
 8 
0
 62 
 7 
 10 
0.746
 20 
1.157
 11 
0.746
 21 
1.15
 0 
LINE
 8 
0
 62 
 7 
 10 
0.746
 20 
1.15
 11 
0.74
 21 
1.144
 0 
LINE
 8 
0
 62 
 7 
 10 
0.74
 20 
1.144
 11 
0.727
 21 
1.144
 0 
LINE
 8 
0
 62 
 7 
 10 
0.727
 20 
1.144
 11 
0.721
 21 
1.138
 0 
LINE
 8 
0
 62 
 7 
 10 
0.721
 20 
1.138
 11 
0.721
 21 
1.131
 0 
LINE
 8 
0
 62 
 7 
 10 
0.721
 20 
1.131
 11 
0.727
 21 
1.125
 0 
LINE
 8 
0
 62 
 7 
 10 
0.727
 20 
1.125
 11 
0.74
 21 
1.125
 0 
LINE
 8 
0
 62 
 7 
 10 
0.74
 20 
1.125
 11 
0.746
 21 
1.131
 0 
LINE
 8 
0
 62 
 7 
 10 
0.746
 20 
1.131
 11 
0.746
 21 
1.138
 0 
LINE
 8 
0
 62 
 7 
 10 
0.746
 20 
1.138
 11 
0.74
 21 
1.144
 0 
LINE
 8 
0
 62 
 7 
 10 
0.46
 20 
0.535
 11 
0.504
 21 
0.535
 0 
LINE
 8 
0
 62 
 7 
 10 
0.45
 20 
0.444
 11 
0.444
 21 
0.45
 0 
LINE
 8 
0
 62 
 7 
 10 
0.444
 20 
0.45
 11 
0.431
 21 
0.45
 0 
LINE
 8 
0
 62 
 7 
 10 
0.431
 20 
0.45
 11 
0.425
 21 
0.444
 0 
LINE
 8 
0
 62 
 7 
 10 
0.425
 20 
0.444
 11 
0.425
 21 
0.418
 0 
LINE
 8 
0
 62 
 7 
 10 
0.425
 20 
0.418
 11 
0.431
 21 
0.412
 0 
LINE
 8 
0
 62 
 7 
 10 
0.431
 20 
0.412
 11 
0.444
 21 
0.412
 0 
LINE
 8 
0
 62 
 7 
 10 
0.444
 20 
0.412
 11 
0.45
 21 
0.418
 0 
LINE
 8 
0
 62 
 7 
 10 
0.488
 20 
0.425
 11 
0.463
 21 
0.425
 0 
LINE
 8 
0
 62 
 7 
 10 
0.463
 20 
0.425
 11 
0.463
 21 
0.431
 0 
LINE
 8 
0
 62 
 7 
 10 
0.463
 20 
0.431
 11 
0.482
 21 
0.45
 0 
LINE
 8 
0
 62 
 7 
 10 
0.482
 20 
0.45
 11 
0.482
 21 
0.412
 0 
LINE
 8 
0
 62 
 7 
 10 
1.234
 20 
0.49
 11 
1.19
 21 
0.49
 0 
LINE
 8 
0
 62 
 7 
 10 
1.275
 20 
0.519
 11 
1.269
 21 
0.525
 0 
LINE
 8 
0
 62 
 7 
 10 
1.269
 20 
0.525
 11 
1.256
 21 
0.525
 0 
LINE
 8 
0
 62 
 7 
 10 
1.256
 20 
0.525
 11 
1.25
 21 
0.519
 0 
LINE
 8 
0
 62 
 7 
 10 
1.25
 20 
0.519
 11 
1.25
 21 
0.493
 0 
LINE
 8 
0
 62 
 7 
 10 
1.25
 20 
0.493
 11 
1.256
 21 
0.487
 0 
LINE
 8 
0
 62 
 7 
 10 
1.256
 20 
0.487
 11 
1.269
 21 
0.487
 0 
LINE
 8 
0
 62 
 7 
 10 
1.269
 20 
0.487
 11 
1.275
 21 
0.493
 0 
LINE
 8 
0
 62 
 7 
 10 
1.313
 20 
0.525
 11 
1.288
 21 
0.525
 0 
LINE
 8 
0
 62 
 7 
 10 
1.288
 20 
0.525
 11 
1.288
 21 
0.512
 0 
LINE
 8 
0
 62 
 7 
 10 
1.288
 20 
0.512
 11 
1.307
 21 
0.512
 0 
LINE
 8 
0
 62 
 7 
 10 
1.307
 20 
0.512
 11 
1.313
 21 
0.506
 0 
LINE
 8 
0
 62 
 7 
 10 
1.313
 20 
0.506
 11 
1.313
 21 
0.493
 0 
LINE
 8 
0
 62 
 7 
 10 
1.313
 20 
0.493
 11 
1.307
 21 
0.487
 0 
LINE
 8 
0
 62 
 7 
 10 
1.307
 20 
0.487
 11 
1.294
 21 
0.487
 0 
LINE
 8 
0
 62 
 7 
 10 
1.294
 20 
0.487
 11 
1.288
 21 
0.493
 0 
LINE
 8 
0
 62 
 7 
 10 
1.65
 20 
1.075
 11 
0.975
 21 
1.075
 0 
LINE
 8 
0
 62 
 7 
 10 
0.975
 20 
1.075
 11 
0.975
 21 
0.625
 0 
LINE
 8 
0
 62 
 7 
 10 
0.975
 20 
0.625
 11 
1.65
 21 
0.625
 0 
LINE
 8 
0
 62 
 7 
 10 
1.65
 20 
0.625
 11 
1.675
 21 
0.65
 0 
LINE
 8 
0
 62 
 7 
 10 
1.675
 20 
0.65
 11 
1.675
 21 
1.05
 0 
LINE
 8 
0
 62 
 7 
 10 
1.675
 20 
1.05
 11 
1.65
 21 
1.075
 0 
LINE
 8 
0
 62 
 7 
 10 
1.04
 20 
1.143
 11 
1.04
 21 
1.101
 0 
LINE
 8 
0
 62 
 7 
 10 
1.04
 20 
1.101
 11 
1.048
 21 
1.093
 0 
LINE
 8 
0
 62 
 7 
 10 
1.048
 20 
1.093
 11 
1.065
 21 
1.093
 0 
LINE
 8 
0
 62 
 7 
 10 
1.065
 20 
1.093
 11 
1.073
 21 
1.101
 0 
LINE
 8 
0
 62 
 7 
 10 
1.073
 20 
1.101
 11 
1.073
 21 
1.143
 0 
LINE
 8 
0
 62 
 7 
 10 
1.09
 20 
1.135
 11 
1.098
 21 
1.143
 0 
LINE
 8 
0
 62 
 7 
 10 
1.098
 20 
1.143
 11 
1.115
 21 
1.143
 0 
LINE
 8 
0
 62 
 7 
 10 
1.115
 20 
1.143
 11 
1.123
 21 
1.135
 0 
LINE
 8 
0
 62 
 7 
 10 
1.123
 20 
1.135
 11 
1.123
 21 
1.126
 0 
LINE
 8 
0
 62 
 7 
 10 
1.123
 20 
1.126
 11 
1.115
 21 
1.118
 0 
LINE
 8 
0
 62 
 7 
 10 
1.115
 20 
1.118
 11 
1.098
 21 
1.118
 0 
LINE
 8 
0
 62 
 7 
 10 
1.098
 20 
1.118
 11 
1.09
 21 
1.11
 0 
LINE
 8 
0
 62 
 7 
 10 
1.09
 20 
1.11
 11 
1.09
 21 
1.093
 0 
LINE
 8 
0
 62 
 7 
 10 
1.09
 20 
1.093
 11 
1.123
 21 
1.093
 0 
ENDSEC
 0 
EOF
